Paris ( France)Tel & WhatsApp: +33 7 896 35 372
Agent Afrique: +226 64 057 666


Contact: tiercespecial57@gmail.com

---------------------------------------------------------------------

04/07/2022 PRIX ECURIE VIVALDI (PRIX LEOPOLD D'ORSETTI)
18:00 - Réunion 1 Course 8 - CLAIREFONTAINE
STEEPLE CHASE - 3900m - 95000.00€


DERNIÈRE MINUTE
 
10
zone Gratuite

TIERCE SPÉCIAL
 00 - 00 - 00 - 00
Reservée aux abonnés

Arrivée:

---------------------------------------------------------------------0-------------------------

03/07/2022 HANDICAP DES HAUTS-DE-SEINE
15:15 - Réunion 1 Course 4 - SAINT CLOUD
PLAT - 2400m - 50000.00€ - Corde à gauche


DERNIÈRE MINUTE
 
03
zone Gratuite

TIERCE SPÉCIAL
 03 - 04 - 11 - 13
Reservée aux abonnés

Arrivée:4-11-13-15-7

---------------------------------------------------------------------0-------------------------

02/07/2022 PRIX DU ROUSSILLON
15:15 - Réunion 1 Course 3 - ENGHIEN
TROT ATTELE - 2150m - 57000.00€


DERNIÈRE MINUTE
 
04
zone Gratuite

TIERCE SPÉCIAL
 04 - 06 - 10 - 01
Reservée aux abonnés

Arrivée:6-10-1-4-5

---------------------------------------------------------------------0-------------------------

1er/07/2022 PRIX URANIA
20:15 - Réunion 1 Course 3 - PARIS-VINCENNES
TROT ATTELE - 2700m - 57000.00€ - Corde à gauche


DERNIÈRE MINUTE
 
12
zone Gratuite

TIERCE SPÉCIAL
 08 - 02 - 12 - 11
Reservée aux abonnés

Arrivée:8-2-12-11-7

---------------------------------------------------------------------0-------------------------

30/06/2022 PRIX DU PALAIS DES GLACES
20:15 - Réunion 1 Course 6 - LONGCHAMP
PLAT - 1850m - 50000.00€ - Corde à droite


DERNIÈRE MINUTE
 
05
zone Gratuite

TIERCE SPÉCIAL
 05 - 07 - 06 - 08
Reservée aux abonnés

Arrivée:5-7-6-8-14

---------------------------------------------------------------------0-------------------------

29/06/2022 Vichy - Prix du Bois du Bouc Attelé - 2950m | Réunion 1 - Course n°1


DERNIÈRE MINUTE
 
04
zone Gratuite

TIERCE SPÉCIAL
 04 - 03 - 08 - 07
Reservée aux abonnés

Arrivée:3-8-7-14-1

---------------------------------------------------------------------0-------------------------

28/06/2022 PRIX DE CHANTILLY
13:50 - Réunion 1 Course 4 - AUTEUIL
HAIES - 3900m - 95000.00€


DERNIÈRE MINUTE
 
06
zone Gratuite

TIERCE SPÉCIAL
 05 - 11 - 07 - 06
Reservée aux abonnés

Arrivée:5-11-7-6-1

---------------------------------------------------------------------0-------------------------

27/06/2022 PRIX FEDERATION DES COURSES DU CENTRE-EST
13:50 - Réunion 1 Course 1 - LYON PARILLY
PLAT - 2000m - 50000.00€ - Corde à gauche


DERNIÈRE MINUTE
 
07
zone Gratuite

TIERCE SPÉCIAL
 07 - 03 - 16 - 05
Reservée aux abonnés

Arrivée:16-3-5-10-6

---------------------------------------------------------------------0-------------------------

26/06/2022 PRIX LE PARISIEN (PRIX BERTRAND DELOISON)
15:15 - Réunion 1 Course 4 - PARIS-VINCENNES
TROT ATTELE - 2850m - 90000.00€ - Corde à gauche


DERNIÈRE MINUTE
 
03
zone Gratuite

TIERCE SPÉCIAL
 00 - 00 - 00 - 00
Reservée aux abonnés

Arrivée:

---------------------------------------------------------------------0-------------------------

25/06/2022 PRIX AU-DELA DES PISTES
15:15 - Réunion 1 Course 3 - COMPIEGNE
PLAT - 2800m - 50000.00€ - Corde à gauche


DERNIÈRE MINUTE
 
06
zone Gratuite

TIERCE SPÉCIAL
 06 - 04 - 10 - 12
Reservée aux abonnés

Arrivée:4-10-12-7-2

---------------------------------------------------------------------0-------------------------

24/06/2022 PRIX TERPSICHORE
20:15 - Réunion 1 Course 3 - PARIS-VINCENNES
TROT ATTELE - 2700m - 44000.00€ - Corde à gauche


DERNIÈRE MINUTE
 
13
zone Gratuite

TIERCE SPÉCIAL
 13 - 06 - 07 - 11
Reservée aux abonnés

Arrivée:13-6-7-11-5

---------------------------------------------------------------------0-------------------------

23/06/2022 PRIX CHANTILLY CAPITALE DU CHEVAL
20:15 - Réunion 1 Course 7 - CHANTILLY
PLAT - 1600m - 55000.00€ - Corde à droite


DERNIÈRE MINUTE
 
07
zone Gratuite

TIERCE SPÉCIAL
 07 - 02 - 14 - 06
Reservée aux abonnés

Arrivée:2-14-6-1-9

---------------------------------------------------------------------0-------------------------

22/06/2022 GRAND NATIONAL DU TROT «PARISTURF»
13:50 - Réunion 1 Course 1 - TOULOUSE
/T/ROT ATTELE - 2950m - 90000.00€ - Corde à droite


DERNIÈRE MINUTE
 
04
zone Gratuite

TIERCE SPÉCIAL
 04 - 02 - 09 - 15
Reservée aux abonnés

Arrivée: 4-2-15-3-9

---------------------------------------------------------------------0-------------------------

21/06/2022 HANDICAP D'ETE
20:15 - Réunion 1 Course 9 - SAINT CLOUD
PLAT - 1600m - 50000.00€ - Corde à gauche


DERNIÈRE MINUTE
 
10
zone Gratuite

TIERCE SPÉCIAL
 05 - 15 - 11 - 10
Reservée aux abonnés

Arrivée:5-15-11-10-1

---------------------------------------------------------------------0-------------------------

20/06/2022 PRIX REVERDY
13:50 - Réunion 1 Course 4 - NANTES
PLAT - 2400m - 50000.00€ - Corde à gauche


DERNIÈRE MINUTE
 
07
zone Gratuite

TIERCE SPÉCIAL
 07 - 13 - 09 - 12
Reservée aux abonnés

Arrivée:13-9-12-5-6

---------------------------------------------------------------------0-------------------------

19/06/2022 PRIX DE DIANE LONGINES
16:00 - Réunion 1 Course 5 - CHANTILLY
PLAT - 2100m - 1000000.00€ - Corde à droite


DERNIÈRE MINUTE
 
04
zone Gratuite

TIERCE SPÉCIAL
 04 - 08 - 12 - 02
Reservée aux abonnés

Arrivée:4-8-12-2-1

---------------------------------------------------------------------0-------------------------

18/06/2022 PRIX DES INVALIDES
13:50 - Réunion 1 Course 9 - ENGHIEN
TROT ATTELE - 2875m - 57000.00€ - Corde à gauche


DERNIÈRE MINUTE
 
06
zone Gratuite

TIERCE SPÉCIAL
 06 - 02 - 12 - 05
Reservée aux abonnés

Arrivée:6-2-12-5-1

---------------------------------------------------------------------0-------------------------

17/06/2022 PRIX DE LA FORET DE CONCISE
20:15 - Réunion 1 Course 7 - LAVAL
TROT ATTELE - 2850m - 32000.00€ - Corde à gauche


DERNIÈRE MINUTE
 
08
zone Gratuite

TIERCE SPÉCIAL
 08 - 01 - 11 - 12
Reservée aux abonnés

Arrivée:1-11-12-14-10

---------------------------------------------------------------------0-------------------------

16/06/2022 PRIX MAJOR FRIDOLIN
20:15 - Réunion 1 Course 7 - LONGCHAMP
PLAT - 1400m - 50000.00€ - Corde à droite


DERNIÈRE MINUTE
 
14
zone Gratuite

TIERCE SPÉCIAL
 14 - 10 - 11 - 15
Reservée aux abonnés

Arrivée:15-11-10-8-1

---------------------------------------------------------------------0-------------------------

15/06/2022 PRIX DU BASSIN D'ARCACHON - SABT
13:50 - Réunion 1 Course 1 - LA TESTE DE BUCH
PLAT - 1100m - 50000.00€


DERNIÈRE MINUTE
 
03
zone Gratuite

TIERCE SPÉCIAL
 03 - 06 - 04 - 13
Reservée aux abonnés

Arrivée:3-6-13-8-2

---------------------------------------------------------------------0-------------------------

14/06/2022 PRIX DES FUTAIES
13:50 - Réunion 1 Course 4 - COMPIEGNE
PLAT - 2000m - 55000.00€ - Corde à gauche


DERNIÈRE MINUTE
 
13
zone Gratuite

TIERCE SPÉCIAL
 13 - 05 - 03 - 04
Reservée aux abonnés

Arrivée:5-3-4-2-10

---------------------------------------------------------------------0-------------------------

13/06/2022 PRIX DE THURY HARCOURT
13:50 - Réunion 1 Course 1 - CAEN
TROT ATTELE - 2450m - 33000.00€ - Corde à droite


DERNIÈRE MINUTE
 
07
zone Gratuite

TIERCE SPÉCIAL
 07 - 14 - 01 - 05
Reservée aux abonnés

Arrivée:14-1-5-13-6

---------------------------------------------------------------------0-------------------------

12/06/2022 PRIX LE FIGAROSCOPE (PRIX DE LA PLACE VENDOME)
15:15 - Réunion 1 Course 4 - LONGCHAMP
PLAT - 2000m - 50000.00€ - Corde à droite


DERNIÈRE MINUTE
 
12
zone Gratuite

TIERCE SPÉCIAL
 12 - 08 - 15 - 10
Reservée aux abonnés

Arrivée: 12-15-10-1-2

---------------------------------------------------------------------0-------------------------

11/06/2022 PRIX DU QUERCY
15:15 - Réunion 1 Course 3 - PARIS-VINCENNES
TROT ATTELE - 2850m - 75000.00€ - Corde à gauche


DERNIÈRE MINUTE
 
06
zone Gratuite

TIERCE SPÉCIAL
 06 - 12 - 11 - 04
Reservée aux abonnés

Arrivée:6-12-11-14-4

---------------------------------------------------------------------0-------------------------

10/06/2022 PRIX TROPIC NIGHT SESSION (PRIX TITANIA)
20:15 - Réunion 1 Course 3 - PARIS-VINCENNES
TROT ATTELE - 2850m - 57000.00€ - Corde à gauche


DERNIÈRE MINUTE
 
06
zone Gratuite

TIERCE SPÉCIAL
 06 - 11 - 02 - 15
Reservée aux abonnés

Arrivée:11-6-15-12-2

---------------------------------------------------------------------0-------------------------

09/06/2022 PRIX DU BEL AIR
20:15 - Réunion 1 Course 6 - LONGCHAMP
PLAT - 1300m - 55000.00€ - Corde à droite


DERNIÈRE MINUTE
 
07
zone Gratuite

TIERCE SPÉCIAL
 11 - 01 - 09 - 07
Reservée aux abonnés

Arrivée:11-1-9-7-10

---------------------------------------------------------------------0-------------------------

08/06/2022 GRAND NATIONAL DU TROT
                     13:50 - Réunion 1 Course 1 - LAVAL
            TROT ATTELE - 2850m - 90000.00€ - Corde à gauche


DERNIÈRE MINUTE
 
12
zone Gratuite

TIERCE SPÉCIAL
 12 - 06 - 09 - 03
Reservée aux abonnés

Arrivée: 6-9-3-7-2

---------------------------------------------------------------------0-------------------------

07/06/2022 PRIX DU VIVARAIS
13:50 - Réunion 1 Course 4 - VICHY
TROT ATTELE - 2150m - 32000.00€


DERNIÈRE MINUTE
 
05
zone Gratuite

TIERCE SPÉCIAL
 05 - 11 - 02 - 03
Reservée aux abonnés

Arrivée:11-5-2-3-6

---------------------------------------------------------------------0-------------------------

06/06/2022 PRIX DU HARAS DE JARDY
15:15 - Réunion 1 Course 3 - SAINT CLOUD
PLAT - 2400m - 50000.00€ - Corde à gauche


DERNIÈRE MINUTE
 
04
zone Gratuite

TIERCE SPÉCIAL
 04 - 10 - 05 - 11
Reservée aux abonnés

Arrivée:5-11-10-7-2

---------------------------------------------------------------------0-------------------------

05/06/2022 QATAR PRIX DU JOCKEY CLUB
16:00 - Réunion 1 Course 5 - CHANTILLY
PLAT - 2100m - 1500000.00€ - Corde à droite


DERNIÈRE MINUTE
 
07
zone Gratuite

TIERCE SPÉCIAL
 01 - 09 - 07 - 02
Reservée aux abonnés

Arrivée:1-9-7-2-5

---------------------------------------------------------------------0-------------------------

04/06/2022 PRIX JEAN VICTOR
16:40 - Réunion 1 Course 1 - AUTEUIL
STEEPLE CHASE - 3700m - 95000.00€


DERNIÈRE MINUTE
 
05
zone Gratuite

TIERCE SPÉCIAL
 05 - 14 - 02 - 09
Reservée aux abonnés

Arrivée:5-14-9-2-11

---------------------------------------------------------------------0-------------------------

03/06/2022 PRIX KISSA
20:15 - Réunion 1 Course 4 - PARIS-VINCENNES
TROT ATTELE - 2700m - 57000.00€ - Corde à gauche


DERNIÈRE MINUTE
 
15
zone Gratuite

TIERCE SPÉCIAL
 15 - 13 - 04 - 05
Reservée aux abonnés

Arrivée:15-13-5-2-6

---------------------------------------------------------------------0-------------------------

02/06/2022 PRIX DE L'ILE DE LA CITE
20:15 - Réunion 1 Course 6 - LONGCHAMP
PLAT - 1850m - 50000.00€ - Corde à droite


DERNIÈRE MINUTE
 
04
zone Gratuite

TIERCE SPÉCIAL
 04 - 12 - 01 - 09
Reservée aux abonnés

Arrivée:4-12-9-13-10

---------------------------------------------------------------------0-------------------------

1er/06/2022 PRIX MAGIC NIGHT
13:50 - Réunion 1 Course 1 - SAINT CLOUD
PLAT - 2000m - 50000.00€ - Corde à gauche


DERNIÈRE MINUTE
 
13
zone Gratuite

TIERCE SPÉCIAL
 13 - 05 - 15 - 01
Reservée aux abonnés

Arrivée: 1-15-5-3-11

---------------------------------------------------------------------0-------------------------

31/05/2022 HANDICAP D'ANGERS LOIRE METROPOLE
13:50 - Réunion 1 Course 1 - ANGERS
PLAT - 1600m - 50000.00€ - Corde à droite


DERNIÈRE MINUTE
 
04
zone Gratuite

TIERCE SPÉCIAL
 01 - 04 - 07 - 09
Reservée aux abonnés

Arrivée: 1-4-7-9-12

---------------------------------------------------------------------0-------------------------

30/05/2022 PRIX DE LA MUSIQUE
13:50 - Réunion 1 Course 4 - STRASBOURG
PLAT - 3000m - 50000.00€ - Corde à droite


DERNIÈRE MINUTE
 
05
zone Gratuite

TIERCE SPÉCIAL
 05 - 09 - 01 - 08
Reservée aux abonnés

Arrivée: 5-9-8-1-7

---------------------------------------------------------------------0-------------------------

29/05/2022 PRIX DE LA VILLE DE PARIS
15:15 - Réunion 1 Course 3 - LONGCHAMP
PLAT - 1600m - 55000.00€ - Corde à droite


DERNIÈRE MINUTE
 
07
zone Gratuite

TIERCE SPÉCIAL
 07 - 16 - 04 - 02
Reservée aux abonnés

Arrivée: 2-16-7-4-13

---------------------------------------------------------------------0-------------------------

28/05/2022 PRIX DU RHONE
15:15 - Réunion 1 Course 3 - ENGHIEN
TROT ATTELE - 2150m - 70000.00€



DERNIÈRE MINUTE
 
08
zone Gratuite

TIERCE SPÉCIAL
 08 - 03 - 09 - 06
Reservée aux abonnés

Arrivée: 3-9-6-10-11

---------------------------------------------------------------------0-------------------------

27/05/2022 PRIX SIRRAH
20:15 - Réunion 1 Course 3 - PARIS-VINCENNES
TROT ATTELE - 2700m - 65000.00€ - Corde à gauche



DERNIÈRE MINUTE
 
14
zone Gratuite

TIERCE SPÉCIAL
 14 - 04 - 02 - 01
Reservée aux abonnés

Arrivée:14-4-2-9-3 

---------------------------------------------------------------------0-------------------------

26/05/2022 PRIX DE MONTRETOUT
20:15 - Réunion 1 Course 7 - LONGCHAMP
PLAT - 1600m - 52000.00€ - Corde à droite


DERNIÈRE MINUTE
 
08
zone Gratuite

TIERCE SPÉCIAL
 08 - 09 - 01 - 05
Reservée aux abonnés

Arrivée: 9-5-8-12-7

---------------------------------------------------------------------0-------------------------

25/05/2022 GRAND NATIONAL DU TROT PARISTURF
13:50 - Réunion 1 Course 1 - LE CROISE-LAROCHE
TROT ATTELE - 2800m - 90000.00€ - Corde à gauche


DERNIÈRE MINUTE
 
12
zone Gratuite

TIERCE SPÉCIAL
 12 - 15 - 10 - 07
Reservée aux abonnés

Arrivée: 15-10-7-1-3

---------------------------------------------------------------------0-------------------------

24/05/2022 PRIX DES COTEAUX DE LA SEINE
13:50 - Réunion 1 Course 1 - SAINT CLOUD
PLAT - 1400m - 50000.00€ - Corde à gauche


DERNIÈRE MINUTE
 
08
zone Gratuite

TIERCE SPÉCIAL
 08 - 04 - 06 - 01
Reservée aux abonnés

Arrivée: 4-6-1-15-16

---------------------------------------------------------------------0-------------------------

23/05/2022 PRIX LOUIS BRUNET
13:50 - Réunion 1 Course 4 - MARSEILLE BORELY
PLAT - 2100m - 50000.00€ - Corde à gauche



DERNIÈRE MINUTE
 
03
zone Gratuite

TIERCE SPÉCIAL
 03 - 12 - 14 - 05
Reservée aux abonnés

Arrivée: 3-12-14-5-8

---------------------------------------------------------------------0-------------------------

22/05/2022 PRIX LE PARISIEN - PRIX EX VOTO
15:15 - Réunion 1 Course 3 - AUTEUIL
HAIES - 3600m - 47000.00€



DERNIÈRE MINUTE
 
05
zone Gratuite

TIERCE SPÉCIAL
 05 - 15 - 09 - 01
Reservée aux abonnés

Arrivée: 15-9-1-14-2

---------------------------------------------------------------------0-------------------------

21/05/2022 PRIX LE PARISIEN - PRIX LE GUALES DE MEZAUBRAN
15:15 - Réunion 1 Course 3 - AUTEUIL
HAIES - 3600m - 95000.00€



DERNIÈRE MINUTE
 
07
zone Gratuite

TIERCE SPÉCIAL
 01 - 07 - 12 - 05
Reservée aux abonnés

Arrivée: 1-7-12-5-4

---------------------------------------------------------------------0-------------------------

20/05/2022 PRIX FIDES
20:15 - Réunion 1 Course 3 - PARIS-VINCENNES
TROT ATTELE - 2700m - 44000.00€ - Corde à gauche


DERNIÈRE MINUTE
 
09
zone Gratuite

TIERCE SPÉCIAL
 09 - 13 - 12 - 10
Reservée aux abonnés

Arrivée: 9-13-12-10-1

---------------------------------------------------------------------0-------------------------

19/05/2022 PRIX DES QUINZE-VINGTS
20:15 - Réunion 1 Course 7 - LONGCHAMP
PLAT - 1700m - 50000.00€ - Corde à droite



DERNIÈRE MINUTE
 
14
zone Gratuite

TIERCE SPÉCIAL
 00 - 00 - 00 - 00
Reservée aux abonnés

Arrivée

---------------------------------------------------------------------0-------------------------

18/05/2022 PRIX DU GATINAIS
13:50 - Réunion 1 Course 1 - PARIS-VINCENNES
TROT ATTELE - 2850m - 90000.00€ - Corde à gauche



DERNIÈRE MINUTE
 
13
zone Gratuite

TIERCE SPÉCIAL
 13 - 02 - 09 - 07
Reservée aux abonnés

Arrivée: 13-2-7-4-8

---------------------------------------------------------------------0-------------------------

17/05/2022 HANDICAP DE L'ILE-DE-FRANCE
13:50 - Réunion 1 Course 1 - SAINT CLOUD
PLAT - 2100m - 50000.00€ - Corde à droite



DERNIÈRE MINUTE
 
16
zone Gratuite

TIERCE SPÉCIAL
 16 - 15 - 07 - 08
Reservée aux abonnés

Arrivée: 15-7-8-12-4

---------------------------------------------------------------------0-------------------------

16/05/2022 PRIX DE SAINT POURCAIN SUR SIOULE
13:50 - Réunion 1 Course 4 - VICHY
TROT ATTELE - 2950m - 36000.00€ - Corde à droite


DERNIÈRE MINUTE
 
13
zone Gratuite

TIERCE SPÉCIAL
 13 - 11 - 07 - 15
Reservée aux abonnés

Arrivée: 13-11-7-15-4

---------------------------------------------------------------------0-------------------------

15/05/2022 EMIRATES POULE D'ESSAI DES POULICHES
15:15 - Réunion 1 Course 4 - LONGCHAMP
PLAT - 1600m - 500000.00€ - Corde à droite



DERNIÈRE MINUTE
 
10
zone Gratuite

TIERCE SPÉCIAL
 10 - 08 - 11 - 03
Reservée aux abonnés

Arrivée: 10-8-3-7-6

---------------------------------------------------------------------0-------------------------

14/05/2022 PRIX DES DUCS DE NORMANDIE
15:15 - Réunion 1 Course 3 - CAEN
TROT ATTELE - 2450m - 150000.00€ - Corde à droite



DERNIÈRE MINUTE
 
14
zone Gratuite

TIERCE SPÉCIAL
 14 - 13 - 06 - 11
Reservée aux abonnés

Arrivée: 13-6-11-9-14

---------------------------------------------------------------------0-------------------------

13/05/2022 PRIX LEO
20:15 - Réunion 1 Course 3 - PARIS-VINCENNES
TROT ATTELE - 2850m - 57000.00€ - Corde à gauche



DERNIÈRE MINUTE
 
15
zone Gratuite

TIERCE SPÉCIAL
 15 - 02 - 11 - 08
Reservée aux abonnés

Arrivée: 15-2-11-8-14

---------------------------------------------------------------------0-------------------------

12/05/2022 PRIX DE MARLY
20:15 - Réunion 1 Course 6 - LONGCHAMP
PLAT - 1300m - 55000.00€ - Corde à droite


DERNIÈRE MINUTE
 
05
zone Gratuite

TIERCE SPÉCIAL
 09 - 05 - 01 - 06
Reservée aux abonnés

Arrivée: 9-5-6-7-2

---------------------------------------------------------------------0-------------------------

11/05/2022 PRIX DE LA FORET DE FONTAINEBLEAU
13:50 - Réunion 1 Course 1 - FONTAINEBLEAU
PLAT - 1200m - 50000.00€


DERNIÈRE MINUTE
 
04
zone Gratuite

TIERCE SPÉCIAL
 04 - 10 - 06 - 05
Reservée aux abonnés

Arrivée: 10-6-5-8-14

---------------------------------------------------------------------0-------------------------

10/05/2022 PRIX DES GRANDES ECURIES
13:50 - Réunion 1 Course 1 - CHANTILLY
PLAT - 1600m - 50000.00€ - Corde à droite


DERNIÈRE MINUTE
 
01
zone Gratuite

TIERCE SPÉCIAL
 01 - 05 - 16 - 11
Reservée aux abonnés

Arrivée: 5-16-11-12-14

---------------------------------------------------------------------0-------------------------

09/05/2022 PRIX BENJAMIN BOUTIN
13:50 - Réunion 1 Course 1 - COMPIEGNE
PLAT - 1800m - 50000.00€ - Corde à gauche


DERNIÈRE MINUTE
 
09
zone Gratuite

TIERCE SPÉCIAL
 09 - 02 - 05 - 12
Reservée aux abonnés

Arrivée: 2-5-12-11-7

---------------------------------------------------------------------0-------------------------

08/05/2022 PRIX DE LA FOUILLEUSE
15:15 - Réunion 1 Course 3 - SAINT CLOUD
PLAT - 1600m - 55000.00€ - Corde à gauche


DERNIÈRE MINUTE
 
01
zone Gratuite

TIERCE SPÉCIAL
 14 - 03 - 04 - 01
Reservée aux abonnés

Arrivée: 14-3-1-11-15

---------------------------------------------------------------------0-------------------------

07/05/2022 PRIX DU ROUERGUE
15:15 - Réunion 1 Course 3 - PARIS-VINCENNES
TROT ATTELE - 2100m - 75000.00€



DERNIÈRE MINUTE
 
02
zone Gratuite

TIERCE SPÉCIAL
 02 - 06 - 05 - 13
Reservée aux abonnés

Arrivée: 6-5-13-3-8

---------------------------------------------------------------------0-------------------------

06/05/2022 PRIX BETTINA
20:15 - Réunion 1 Course 3 - PARIS-VINCENNES
TROT ATTELE - 2100m - 57000.00€


DERNIÈRE MINUTE
 
05
zone Gratuite

TIERCE SPÉCIAL
 05 - 11 - 14 - 02
Reservée aux abonnés

Arrivée: 11-14-2-15-10

---------------------------------------------------------------------0-------------------------

05/05/2022 GRAND PRIX DE LYON-PARILLY
13:50 - Réunion 1 Course 1 - LYON PARILLY
PLAT - 2400m - 50000.00€ - Corde à gauche


DERNIÈRE MINUTE
 
01
zone Gratuite

TIERCE SPÉCIAL
 01 - 13 - 07 - 10
Reservée aux abonnés

Arrivée: 13-7-10-1-9

---------------------------------------------------------------------0-------------------------

04/05/2022 PRIX DE L'ORANGERIE
13:50 - Réunion 1 Course 1 - LONGCHAMP
PLAT - 1400m - 50000.00€ - Corde à droite


DERNIÈRE MINUTE
 
07
zone Gratuite

TIERCE SPÉCIAL
 07 - 08 - 15 - 03
Reservée aux abonnés

Arrivée: 8-15-3-2-4

---------------------------------------------------------------------0-------------------------

03/05/2022 PRIX DE LA FORET DE CHANTILLY
13:50 - Réunion 1 Course 1 -
PLAT - 3000m - 50000.00€ - Corde à droite


DERNIÈRE MINUTE
 
05
zone Gratuite

TIERCE SPÉCIAL
 05 - 03 - 11 - 04
Reservée aux abonnés

Arrivée: 3-11-4-5-12

---------------------------------------------------------------------0-------------------------

02/05/2022 PRIX DE LA CHAISE DIEU13:50 - Réunion 1 Course 4 - VICHYTROT ATTELE - 2950m - 36000.00€ - Corde à droite


DERNIÈRE MINUTE
 
11
zone Gratuite

TIERCE SPÉCIAL
 13 - 02 - 11 - 14
Reservée aux abonnés

Arrivée: 13-2-11-8-14

---------------------------------------------------------------------0-------------------------

1er/05/2022 GRAND HANDICAP DE LA NOUVELLE PISTE
15:15 - Réunion 1 Course 4 - LONGCHAMP
PLAT - 1400m - 70000.00€ - Corde à droite



DERNIÈRE MINUTE
 
03
zone Gratuite

TIERCE SPÉCIAL
 03 - 01 - 02 - 04
Reservée aux abonnés

Arrivée: 1-4-3-13-10

---------------------------------------------------------------------0-------------------------

30/04/2022 GRANDE COURSE DE HAIES DE PRINTEMPS - PRIX LE PARISIEN
15:15 - Réunion 1 Course 1 - AUTEUIL
HAIES - 4300m - 155000.00€


DERNIÈRE MINUTE
 
03
zone Gratuite

TIERCE SPÉCIAL
 03 - 01 - 04 - 20
Reservée aux abonnés

Arrivée: 20-1-4-19-12

---------------------------------------------------------------------0-------------------------

29/04/2022 PRIX HUBERTA
20:15 - Réunion 1 Course 3 - MAUQUENCHY
TROT ATTELE - 2850m - 57000.00€ - Corde à gauche


DERNIÈRE MINUTE
 
11
zone Gratuite

TIERCE SPÉCIAL
 11 - 08 - 16 - 03
Reservée aux abonnés

Arrivée:3-16-11-7-14 

---------------------------------------------------------------------0-------------------------

28/04/2022 PRIX DE LA COMEDIE FRANCAISE
13:50 - Réunion 1 Course 1 - LONGCHAMP
PLAT - 2100m - 50000.00€ - Corde à droite



DERNIÈRE MINUTE
 
14
zone Gratuite

TIERCE SPÉCIAL
 14 - 07 - 04 - 05
Reservée aux abonnés

Arrivée: 5-4-7-6-10

---------------------------------------------------------------------0-------------------------

27/04/2022 GRAND NATIONAL DU TROT PARISTURF
13:50 - Réunion 1 Course 1 - CHATEAUBRIANT
TROT ATTELE - 2975m - 90000.00€ - Corde à droite


DERNIÈRE MINUTE
 
16
zone Gratuite

TIERCE SPÉCIAL
 16 - 13 - 09 - 04
Reservée aux abonnés

Arrivée: 16-13-9-11-4

---------------------------------------------------------------------0-------------------------

26/04/2022 PRIX GASTON BRANERE
13:50 - Réunion 1 Course 1 - COMPIEGNE
HAIES - 3600m - 95000.00€


DERNIÈRE MINUTE
 
01
zone Gratuite

TIERCE SPÉCIAL
 01 - 08 - 03 - 12
Reservée aux abonnés

Arrivée:8-3-12-7-1 

---------------------------------------------------------------------0-------------------------

25/04/2022 PRIX BMW MINI BAYERN MERIGNAC - LA TESTE - HANDICAP DE BORDEAUX
13:50 - Réunion 1 Course 1 - BORDEAUX-LE BOUSCAT
PLAT - 1600m - 50000.00€ - Corde à droite


DERNIÈRE MINUTE
 
07
zone Gratuite

TIERCE SPÉCIAL
 07 - 09 - 06 - 14
Reservée aux abonnés

Arrivée: 9-6-14-11-4

---------------------------------------------------------------------0-------------------------

24/04/2002-05-01-0422 PRIX KARCIMONT
15:15 - Réunion 1 Course 3 - AUTEUIL
STEEPLE CHASE - 4400m - 95000.00€


DERNIÈRE MINUTE
 
05
zone Gratuite

TIERCE SPÉCIAL
 00 - 00 - 00 - 00
Reservée aux abonnés

Arrivée

---------------------------------------------------------------------0-------------------------

23/04/2022 PRIX DE LA PORTE D'AUTEUIL
15:15 - Réunion 1 Course 3 - ENGHIEN
TROT ATTELE - 2150m - 65000.00€


DERNIÈRE MINUTE
 
01
zone Gratuite

TIERCE SPÉCIAL
 01 - 06 - 08 - 05
Reservée aux abonnés

Arrivée: 6-8-5-11-2

---------------------------------------------------------------------0-------------------------

22/04/2022 PRIX BRASIL NIGHT SESSION (PRIX MARTHA)
20:15 - Réunion 1 Course 3 - PARIS-VINCENNES
TROT ATTELE - 2100m - 44000.00€


DERNIÈRE MINUTE
 
08
zone Gratuite

TIERCE SPÉCIAL
 07 - 02 - 08 - 06
Reservée aux abonnés

Arrivée: 7-2-6-4-8

---------------------------------------------------------------------0-------------------------

21/04/2022 PRIX DU PAVILLON ROYAL
13:50 - Réunion 1 Course 1 - LONGCHAMP
PLAT - 1850m - 50000.00€ - Corde à droite


DERNIÈRE MINUTE
 
11
zone Gratuite

TIERCE SPÉCIAL
 06 - 11 - 08 - 10
Reservée aux abonnés

Arrivée: 6-11-8-10-15

---------------------------------------------------------------------0-------------------------

20/04/2022 PRIX DE LA VILLE DE CORDEMAIS
13:50 - Réunion 1 Course 1 - CORDEMAIS
TROT ATTELE - 2825m - 32000.00€



DERNIÈRE MINUTE
 
08
zone Gratuite

TIERCE SPÉCIAL
 02 - 12 - 08 - 06
Reservée aux abonnés

Arrivée: 2-12-8-6-1

---------------------------------------------------------------------0-------------------------

19/04/2022 PRIX DE PAU
13:50 - Réunion 1 Course 1 - AUTEUIL
HAIES - 3900m - 95000.00€


DERNIÈRE MINUTE
 
06
zone Gratuite

TIERCE SPÉCIAL
 06 - 01 - 09 - 13
Reservée aux abonnés

Arrivée: 1-9-13-10-4

---------------------------------------------------------------------0-------------------------

18/04/2022 PRIX DES PLATANES
15:15 - Réunion 1 Course 3 - SAINT CLOUD
PLAT - 2400m - 50000.00€ - Corde à gauche



DERNIÈRE MINUTE
 
08
zone Gratuite

TIERCE SPÉCIAL
 08 - 06 - 01 - 05
Reservée aux abonnés

Arrivée: 8-6-5-9-7

---------------------------------------------------------------------0-------------------------

17/04/2022 GRAND HANDICAP DE PAQUES
15:15 - Réunion 1 Course 3 - LONGCHAMP
PLAT - 2400m - 70000.00€ - Corde à droit


DERNIÈRE MINUTE
 
07
zone Gratuite

TIERCE SPÉCIAL
 07 - 01 - 02 - 06
Reservée aux abonnés

Arrivée: 7-1-2-10-11

---------------------------------------------------------------------0-------------------------

16/04/2022 PRIX HENRI LEVESQUE
15:15 - Réunion 1 Course 3 - PARIS-VINCENNES
TROT ATTELE - 2700m - 120000.00€ - Corde à gauche


DERNIÈRE MINUTE
 
10
zone Gratuite

TIERCE SPÉCIAL
 10 - 05 - 12 - 15
Reservée aux abonnés

Arrivée: 5-12-15-7-8

---------------------------------------------------------------------0-------------------------

15/04/2022 PRIX HENRIETTA
20:15 - Réunion 1 Course 4 - PARIS-VINCENNES
TROT ATTELE - 2100m - 44000.00€


DERNIÈRE MINUTE
 
01
zone Gratuite

TIERCE SPÉCIAL
 01 - 10 - 07 - 03
Reservée aux abonnés

Arrivée: 10-7-3-2-13

---------------------------------------------------------------------0-------------------------

14/04/2022 PRIX ROSE OR NO
13:50 - Réunion 1 Course 1 - AUTEUIL
HAIES - 3900m - 95000.00€


DERNIÈRE MINUTE
 
05
zone Gratuite

TIERCE SPÉCIAL
 05 - 09 - 03 - 02
Reservée aux abonnés

Arrivée: 9-3-2-15-4

---------------------------------------------------------------------0-------------------------

13/04/2022 GRAND NATIONAL DU TROT PARIS-TURF
13:50 - Réunion 1 Course 1 - REIMS
TROT ATTELE - 2550m - 90000.00€ - Corde à droite


DERNIÈRE MINUTE
 
02
zone Gratuite

TIERCE SPÉCIAL
 02 - 01 - 04 - 05
Reservée aux abonnés

Arrivée: 1-4-5-3-14

---------------------------------------------------------------------0-------------------------

12/04/2022 PRIX ROLAND FOUGEDOIRE
13:50 - Réunion 1 Course 1 - FONTAINEBLEAU
PLAT - 1800m - 50000.00€ - Corde à gauche


DERNIÈRE MINUTE
 
09
zone Gratuite

TIERCE SPÉCIAL
 09 - 11 - 02 - 12
Reservée aux abonnés

Arrivée: 11-2-12-8-10

---------------------------------------------------------------------0-------------------------

11/04/2022 PRIX DE LA ROCHELLE
13:50 - Réunion 1 Course 4 - COMPIEGNE
STEEPLE CHASE - 3800m - 95000.00€


DERNIÈRE MINUTE
 
11
zone Gratuite

TIERCE SPÉCIAL
 11 - 08 - 13 - 15
Reservée aux abonnés

Arrivée: 8-13-15-1-9

---------------------------------------------------------------------0-------------------------

10/04/2022 PRIX DE CHEVILLY
15:15 - Réunion 1 Course 3 - LONGCHAMP
PLAT - 1400m - 50000.00€ - Corde à droite


DERNIÈRE MINUTE
 
09
zone Gratuite

TIERCE SPÉCIAL
 02 - 12 - 09 - 01
Reservée aux abonnés

Arrivée: 2-12-9-1-4

---------------------------------------------------------------------0-------------------------

09/04/2022 PRIX D'AUBUSSON
15:15 - Réunion 1 Course 3 - PARIS-VINCENNES
TROT ATTELE - 2100m - 65000.00€


DERNIÈRE MINUTE
 
01
zone Gratuite

TIERCE SPÉCIAL
 01 - 08 - 14 - 06
Reservée aux abonnés

Arrivée: 1-8-14-6-2

---------------------------------------------------------------------0-------------------------

08/04/2022 PRIX CEPHENS
20:15 - Réunion 1 Course 4 - PARIS-VINCENNES
 TROT ATTELE - 2850m - 44000.00€ - Corde à gauche


DERNIÈRE MINUTE
 
06
zone Gratuite

TIERCE SPÉCIAL
 06 - 12 - 04 - 11
Reservée aux abonnés

Arrivée: 6-12-11-1-14

---------------------------------------------------------------------0-------------------------

07/04/2022 PRIX DE L'OPERATION OVERLORD
13:50 - Réunion 1 Course 1 - DEAUVILLE
PLAT - 1900m - 50000.00€ - Corde à droite


DERNIÈRE MINUTE
 
05
zone Gratuite

TIERCE SPÉCIAL
 05 - 16 - 02 - 13
Reservée aux abonnés

Arrivée: 16-2-13-5-9

---------------------------------------------------------------------0-------------------------

06/04/2022 GRAND PRIX ANGERS LOIRE METROPOLE
13:50 - Réunion 1 Course 1 - ANGERS
TROT ATTELE - 3100m - 64000.00€ - Corde à droite



DERNIÈRE MINUTE
 
16
zone Gratuite

TIERCE SPÉCIAL
 16 - 05 - 15 - 09
Reservée aux abonnés

Arrivée: 5-15-9-13-16

---------------------------------------------------------------------0-------------------------

05/04/2022 PRIX DE L'AUTOROUTE DE L'OUEST
13:50 - Réunion 1 Course 1 - SAINT CLOUD
PLAT - 1600m - 50000.00€ - Corde à gauche


DERNIÈRE MINUTE
 
03
zone Gratuite

TIERCE SPÉCIAL
 03 - 08 - 13 - 11
Reservée aux abonnés

Arrivée: 13-8-11-1-2

---------------------------------------------------------------------0-------------------------

04/04/2022 PRIX DES GRANDES FONTAINES
13:50 - Réunion 1 Course 1 - CHANTILLY
PLAT - 3000m - 50000.00€ - Corde à droite


DERNIÈRE MINUTE
 
02
zone Gratuite

TIERCE SPÉCIAL
 02 - 06 - 05 - 10
Reservée aux abonnés

Arrivée: 6-2-10-5-3

---------------------------------------------------------------------0-------------------------

03/04/2022 PRIX DU PRESIDENT DE LA REPUBLIQUE
15:15 - Réunion 1 Course 3 - AUTEUIL
STEEPLE CHASE - 4700m - 225000.00€


DERNIÈRE MINUTE
 
08
zone Gratuite

TIERCE SPÉCIAL
 08 - 09 - 16 - 12
Reservée aux abonnés

Arrivée: 9-12-16-8-2

---------------------------------------------------------------------0-------------------------

02/04/2022 PRIX DU LANGUEDOC
15:15 - Réunion 1 Course 3 - SAINT CLOUD
PLAT - 2000m - 50000.00€ - Corde à gauche


DERNIÈRE MINUTE
 
07
zone Gratuite

TIERCE SPÉCIAL
 07 - 04 - 10 - 14
Reservée aux abonnés

Arrivée: 7-10-14-5-12

---------------------------------------------------------------------0-------------------------

1er/04/2022 PRIX AMALTHEA
20:15 - Réunion 1 Course 3 - PARIS-VINCENNES
TROT ATTELE - 2100m - 65000.00€


DERNIÈRE MINUTE
 
13
zone Gratuite

TIERCE SPÉCIAL
 10 - 13 - 05 - 07
Reservée aux abonnés

Arrivée: 10-5-7-11-13

---------------------------------------------------------------------0-------------------------

31/03/2022 PRIX DE LA JOURNEE DES PLANTES
13:50 - Réunion 1 Course 1 - CHANTILLY
PLAT - 1600m - 50000.00€ - Corde à droite


DERNIÈRE MINUTE
 
03
zone Gratuite

TIERCE SPÉCIAL
 03 - 09 - 11 - 05
Reservée aux abonnés

Arrivée: 9-11-5-7-10

---------------------------------------------------------------------0-------------------------

30/03/2022 GRAND NATIONAL DU TROT
13:50 - Réunion 1 Course 1 - SALON DE PROVENCE
TROT ATTELE - 3000m - 90000.00€ - Corde à droite


DERNIÈRE MINUTE
 
04
zone Gratuite

TIERCE SPÉCIAL
 04 - 10 - 13 - 12
Reservée aux abonnés

Arrivée: 12-10-13-2-8

---------------------------------------------------------------------0-------------------------

29/03/2022 PRIX DE LA GLORIETTE
13:50 - Réunion 1 Course 1 - SAINT CLOUD
PLAT - 2400m - 50000.00€ - Corde à gauche


DERNIÈRE MINUTE
 
07
zone Gratuite

TIERCE SPÉCIAL
 07 - 01 - 14 - 09
Reservée aux abonnés

Arrivée: 1-7-14-9-15

---------------------------------------------------------------------0-------------------------

28/03/2022 PRIX HUBERT DE CATHEU
13:50 - Réunion 1 Course 1 - FONTAINEBLEAU
PLAT - 1200m - 50000.00€


DERNIÈRE MINUTE
 
02
zone Gratuite

TIERCE SPÉCIAL
 02 - 13 - 07 - 04
Reservée aux abonnés

Arrivée: 13-7-4-2-11

---------------------------------------------------------------------0-------------------------

27/03/2022 PRIX GENERAL DE ROUGEMONT
15:15 - Réunion 1 Course 3 - AUTEUIL
HAIES - 3600m - 95000.00€


DERNIÈRE MINUTE
 
09
zone Gratuite

TIERCE SPÉCIAL
 09 - 05 - 06 - 13
Reservée aux abonnés

Arrivée: 5-6-13-1-8

---------------------------------------------------------------------0-------------------------

26/03/2022 PRIX DU BOIS DE VINCENNES
15:35 - Réunion 1 Course 3 - PARIS-VINCENNES
TROT ATTELE - 2850m - 90000.00€ - Corde à gauche


DERNIÈRE MINUTE
 
15
zone Gratuite

TIERCE SPÉCIAL
 03 - 15 - 12 - 01
Reservée aux abonnés

Arrivée: 3-15-12-4-8

---------------------------------------------------------------------0-------------------------

25/03/2022 PRIX ENCELADUS
20:15 - Réunion 1 Course 4 - PARIS-VINCENNES
TROT ATTELE - 2700m - 44000.00€ - Corde à gauche


DERNIÈRE MINUTE
 
06
zone Gratuite

TIERCE SPÉCIAL
 08 - 01 - 06 - 03
Reservée aux abonnés

Arrivée: 8-1-6-3-12

---------------------------------------------------------------------0-------------------------

24/03/2022 PRIX DE LA PROVENCE
13:50 - Réunion 1 Course 1 - SAINT CLOUD
PLAT - 2400m - 50000.00€ - Corde à gauche


DERNIÈRE MINUTE
 
03
zone Gratuite

TIERCE SPÉCIAL
 03 - 02 - 14 - 16
Reservée aux abonnés

Arrivée: 2-16-14-7-1

---------------------------------------------------------------------0-------------------------

23/03/2022 PRIX ROGER LEDOYEN
13:55 - Réunion 1 Course 1 - LISIEUX
TROT ATTELE - 2725m - 33000.00€ - Corde à droite


DERNIÈRE MINUTE
 
04
zone Gratuite

TIERCE SPÉCIAL
 07 - 12 - 04 - 03
Reservée aux abonnés

Arrivée: 7-12-3-9-4

---------------------------------------------------------------------0-------------------------

22/03/2022 PRIX DUNETTE
13:50 - Réunion 1 Course 1 - CHANTILLY
PLAT - 2100m - 50000.00€ - Corde à droite


DERNIÈRE MINUTE
 
08
zone Gratuite

TIERCE SPÉCIAL
 01 - 08 - 10 - 06
Reservée aux abonnés

Arrivée: 1-8-10-6-14

---------------------------------------------------------------------0-------------------------