Paris ( France)Tel & WhatsApp: +33 7 896 35 372
Agent Afrique: +226 64 057 666


Contact: tiercespecial57@gmail.com

---------------------------------------------------------------------

27/11/2021 PRIX ANNICK DREUX
15:15 - Réunion 1 Course 3 - PARIS-VINCENNES
TROT ATTELE - 2700m - 110000.00€ - Corde à gauche


DERNIÈRE MINUTE
 
 10
zone Gratuite

TIERCE SPÉCIAL
 00 - 00 - 00 - 00
Reservée aux abonnés

Arrivée
---------------------------------------------------------------------0-------------------------

26/11/2021 PRIX TRITON
20:15 - Réunion 1 Course 3 - PARIS-VINCENNES
TROT ATTELE - 2700m - 37000.00€ - Corde à gauche


DERNIÈRE MINUTE
 
 15
zone Gratuite

TIERCE SPÉCIAL
 05 - 01 - 10 - 15
Réservée aux abonnés

Arrivée: 5-1-10-15-8
---------------------------------------------------------------------0-------------------------

25/11/2021 PRIX DE SILLE-LE-GUILLAUME
13:50 - Réunion 1 Course 1 - PARIS-VINCENNES
TROT ATTELE - 2850m - 58000.00€ - Corde à gauche


DERNIÈRE MINUTE
 
 04
zone Gratuite

TIERCE SPÉCIAL
 04 - 16 - 03 - 06
Reservée aux abonnés

Arrivée: 4-16-6-9-12
---------------------------------------------------------------------0-------------------------

24/11/2021 GRAND NATIONAL DU TROT
13:55 - Réunion 1 Course 4 - LE MANS
TROT ATTELE - 2950m - 85000.00€ - Corde à gauche


DERNIÈRE MINUTE
 
 12
zone Gratuite

TIERCE SPÉCIAL
 12 - 05 - 08 - 16
Reservée aux abonnés

Arrivée: 5-8-16-3-4
---------------------------------------------------------------------0-------------------------

23/11/2021 PRIX DU JURY
13:50 - Réunion 1 Course 2 - DEAUVILLE
PLAT - 1500m - 50000.00€ - Corde à droite


DERNIÈRE MINUTE
 
 03
zone Gratuite

TIERCE SPÉCIAL
 03 - 06 - 08 - 01
Reservée aux abonnés

Arrivée: 6-8-1-9-7
---------------------------------------------------------------------0-------------------------

22/11/2021 PRIX DE MONTIGNAC-CHARENTE
13:50 - Réunion 1 Course 1 - PARIS-VINCENNES
TROT ATTELE - 2700m - 80000.00€ - Corde à gauche


DERNIÈRE MINUTE
 
 07
zone Gratuite

TIERCE SPÉCIAL
 10 - 07 - 06 - 14
Reservée aux abonnés

Arrivée: 10-7-14-5-12
---------------------------------------------------------------------0-------------------------

21/11/2021/PRIX D'AMERIQUE RACES ZETURF Q1
15:15 - Réunion 1 Course 4 - PARIS-VINCENNES
TROT ATTELE - 2700m - 110000.00€ - Corde à gauche


DERNIÈRE MINUTE
 
 04
zone Gratuite

TIERCE SPÉCIAL
 04 - 17 - 12 - 01
Reservée aux abonnés

Arrivée: 17-12-1-7-11
---------------------------------------------------------------------0-------------------------

20/11/2021 PRIX FRANCOIS DE GANAY
15:15 - Réunion 1 Course 6 - AUTEUIL
HAIES - 3600m - 95000.00€



DERNIÈRE MINUTE
 
 06
zone Gratuite

TIERCE SPÉCIAL
 06 - 13 - 01 - 02
Reservée aux abonnés

Arrivée: 13-6-1-2-16
---------------------------------------------------------------------0-------------------------
19/11/2021 PRIX MIZAR
20:15 - Réunion 1 Course 3 - PARIS-VINCENNES
TROT ATTELE - 2100m - 43000.00€


DERNIÈRE MINUTE
 
 05
zone Gratuite

TIERCE SPÉCIAL
 05 - 04 - 01 - 13
Reservée aux abonnés

Arrivée: 5-1-13-2-14
---------------------------------------------------------------------0-------------------------

18/11/2021 PRIX DE LA SEINE-ET-MARNE
13:50 - Réunion 1 Course 3 - FONTAINEBLEAU
PLAT - 1200m - 50000.00€


DERNIÈRE MINUTE
 
 01
zone Gratuite

TIERCE SPÉCIAL
 01 - 04 - 02 - 15
Reservée aux abonnés

Arrivée: 1-4-2-15-5
---------------------------------------------------------------------0-------------------------

17/11/2021 PRIX DES POIRIERS
13:55 - Réunion 1 Course 1 - DEAUVILLE
PLAT - 2500m - 50000.00€ - Corde à 


DERNIÈRE MINUTE
 
 08
zone Gratuite

TIERCE SPÉCIAL
 08 - 14 - 02 - 09
Reservée aux abonnés

Arrivée: 14-2-9-7-4
---------------------------------------------------------------------0-------------------------


16/11/2021 PRIX DE LA VALLEE DE CHEVREUSE
13:50 - Réunion 1 Course 4 - SAINT CLOUD
PLAT - 2000m - 50000.00€ - Corde à gauche



DERNIÈRE MINUTE
 
 05
zone Gratuite

TIERCE SPÉCIAL
 05 - 13 - 10 - 04
Reservée aux abonnés

Arrivée: 13-10-4-9-11
---------------------------------------------------------------------0-------------------------
15/11/2021 PRIX SAUTERNES'S CUP
13:50 - Réunion 1 Course 4 - BORDEAUX-LE BOUSCAT
TROT ATTELE - 2650m - 32000.00€ - Corde à droite


DERNIÈRE MINUTE
 
 15
zone Gratuite

TIERCE SPÉCIAL
 15 - 08 - 03 - 02
Reservée aux abonnés

Arrivée: 8-3-2-1-15
---------------------------------------------------------------------0-------------------------

14/11/2021 PRIX LE PARISIEN - PRIX MARC ANTONY
15:15 - Réunion 1 Course 6 - AUTEUIL
HAIES - 3900m - 95000.00€


DERNIÈRE MINUTE
 
 04
zone Gratuite

TIERCE SPÉCIAL
 04 - 11 - 07 - 06
Reservée aux abonnés

Arrivée: 11-7-6-10-13
---------------------------------------------------------------------0-------------------------

13/11/2021 PRIX DU LANGUEDOC
15:15 - Réunion 1 Course 3 - PARIS-VINCENNES
TROT ATTELE - 2850m - 80000.00€ - Corde à gauche


DERNIÈRE MINUTE
 
 04
zone Gratuite

TIERCE SPÉCIAL
 05 - 10 - 04 - 09
Reservée aux abonnés

Arrivée: 5-10-4-12-8
---------------------------------------------------------------------0-------------------------

12/11/2021 PRIX CERES
20:15 - Réunion 1 Course 3 - PARIS-VINCENNES
TROT ATTELE - 2700m - 35000.00€ - Corde à gauche


DERNIÈRE MINUTE
 
 13
zone Gratuite

TIERCE SPÉCIAL
 13 - 11 - 10 - 12
Reservée aux abonnés

Arrivée: 11-10-12-7-13
---------------------------------------------------------------------0-------------------------

11/11/2021 PRIX DE LA VILLE DE TOULOUSE - PRIX TOULOUSE FM
15:15 - Réunion 1 Course 2 - TOULOUSE
PLAT - 2400m - 50000.00€ - Corde à droite


DERNIÈRE MINUTE
 
 02
zone Gratuite

TIERCE SPÉCIAL
 02 - 04 - 03 - 13
Reservée aux abonnés

Arrivée: 4-3-13-16-1
---------------------------------------------------------------------0-------------------------

10/11/2021 GRAND NATIONAL DU TROT PARIS-TURF
13:55 - Réunion 1 Course 2 - NANTES
TROT ATTELE - 3000m - 85000.00€ - Corde à gauche


DERNIÈRE MINUTE
 
 16
zone Gratuite

TIERCE SPÉCIAL
 16 - 01 - 04 - 02
Reservée aux abonnés

Arrivée: 1-4-2-5-14
---------------------------------------------------------------------0-------------------------

09/11/2021 HANDICAP D'ANGERS LOIRE METROPOLE
13:50 - Réunion 1 Course 4 - ANGERS
PLAT - 1600m - 50000.00€ - Corde à droite


DERNIÈRE MINUTE
 
 14
zone Gratuite

TIERCE SPÉCIAL
 14 - 13 - 08 - 07
Reservée aux abonnés

Arrivée: 14-13-7-6-12
---------------------------------------------------------------------0-------------------------
08/11/2021 PRIX D'ARCACHON
13:50 - Réunion 1 Course 1 - PARIS-VINCENNES
TROT ATTELE - 2100m - 67000.00€


DERNIÈRE MINUTE
 
 09
zone Gratuite

TIERCE SPÉCIAL
 09 - 06 - 16 - 15
Reservée aux abonnés

Arrivée: 9-16-15-5-3
---------------------------------------------------------------------0-------------------------

07/11/2021 PRIX RFM - PRIX COUNT SCHOMBERG
15:15 - Réunion 1 Course 5 - AUTEUIL
HAIES - 4300m - 95000.00€


DERNIÈRE MINUTE
 
 04
zone Gratuite

TIERCE SPÉCIAL
 07 - 05 - 04 - 09
Reservée aux abonnés

Arrivée: 7-5-4-11-6
---------------------------------------------------------------------0-------------------------

06/11/2021 PRIX CACAO
15:15 - Réunion 1 Course 4 - AUTEUIL
STEEPLE CHASE - 4400m - 95000.00€


DERNIÈRE MINUTE
 
 02
zone Gratuite

TIERCE SPÉCIAL
 02 - 03 - 12 - 04
Reservée aux abonnés

Arrivée: 3-12-4-15-13
---------------------------------------------------------------------0-------------------------

05/11/2021 PRIX GALLEA
20:15 - Réunion 1 Course 3 - PARIS-VINCENNES
TROT ATTELE - 2700m - 37000.00€ - Corde à gauche


DERNIÈRE MINUTE
 
 03
zone Gratuite

TIERCE SPÉCIAL
 03 - 10 - 11 - 13
Reservée aux abonnés

Arrivée: 10-3-13-11-7
---------------------------------------------------------------------0-------------------------

04/11/2021 PRIX DU PAYS DE BRAY
13:50 - Réunion 1 Course 2 - DEAUVILLE
PLAT - 1900m - 70000.00€ - Corde à droite



DERNIÈRE MINUTE
 
 01
zone Gratuite

TIERCE SPÉCIAL
 01 - 02 - 07 - 15
Reservée aux abonnés

Arrivée: 15-2-1-4-11
---------------------------------------------------------------------0-------------------------

03/11/2021 PRIX DE SOULAC
13:55 - Réunion 1 Course 1 - PARIS-VINCENNES
TROT ATTELE - 2700m - 58000.00€ - Corde à gauche


DERNIÈRE MINUTE
 
 01
zone Gratuite

TIERCE SPÉCIAL
 01 - 11 - 06 - 02
Reservée aux abonnés

Arrivée: 11-6-2-3-4
---------------------------------------------------------------------0-------------------------

02/11/2021 PRIX DE LA VIERGE DE LORETTE
13:50 - Réunion 1 Course 5 - CHANTILLY
PLAT - 1300m - 50000.00€ - Corde à droite


DERNIÈRE MINUTE
 
 02
zone Gratuite

TIERCE SPÉCIAL
 02 - 11 - 12 - 06
Reservée aux abonnés

Arrivée: 11-12-6-5-3
---------------------------------------------------------------------0-------------------------

1er/11/2021 GRAND PRIX DE LA VILLE DE LAVAL
15:15 - Réunion 1 Course 3 - LAVAL
TROT ATTELE - 2850m - 60000.00€ - Corde à gauche



DERNIÈRE MINUTE
 
 15
zone Gratuite

TIERCE SPÉCIAL
 15 - 06 - 02 - 14
Reservée aux abonnés

Arrivée: 6-2-14-5-15
---------------------------------------------------------------------0-------------------------

31/10/2021 PRIX DE L'ELEVAGE
15:15 - Réunion 1 Course 5 - SAINT CLOUD
PLAT - 2500m - 50000.00€ - Corde à gauche


DERNIÈRE MINUTE
 
 11
zone Gratuite

TIERCE SPÉCIAL
 11 - 08 - 01 - 06
Reservée aux abonnés

Arrivée: 8-1-6-10-15
---------------------------------------------------------------------0-------------------------

30/10/2021 PRIX CEREALISTE
15:15 - Réunion 1 Course 3 - COMPIEGNE
HAIES - 3600m - 95000.00€


DERNIÈRE MINUTE
 
 09
zone Gratuite

TIERCE SPÉCIAL
 09 - 04 - 08 - 12
Reservée aux abonnés

Arrivée:4-8-12-9-7 
---------------------------------------------------------------------0-------------------------

29/10/2021 PRIX JUNO
20:15 - Réunion 1 Course 4 - PARIS-VINCENNES
TROT ATTELE - 2100m - 60000.00€


DERNIÈRE MINUTE
 
 05
zone Gratuite

TIERCE SPÉCIAL
 05 - 04 - 03 - 13
Reservée aux abonnés

Arrivée: 4-3-13-9-7
---------------------------------------------------------------------0-------------------------

28/10/2021 PRIX RIEUSSEC
13:50 - Réunion 1 Course 1 - LONGCHAMP
PLAT - 2800m - 55000.00€ - Corde à droite


DERNIÈRE MINUTE
 
 04
zone Gratuite

TIERCE SPÉCIAL
 04 - 08 - 01 - 06
Reservée aux abonnés

Arrivée: 8-1-6-10-2
---------------------------------------------------------------------0-------------------------

27/10/2021 PRIX DE POMAREZ
13:50 - Réunion 1 Course 1 - ENGHIEN
TROT ATTELE - 2875m - 60000.00€ - Corde à gauche


DERNIÈRE MINUTE
 
 04
zone Gratuite

TIERCE SPÉCIAL
 03 - 04 - 01 - 12
Reservée aux abonnés

Arrivée: 3-4-12-14-13
---------------------------------------------------------------------0-------------------------

26/10/2021 PRIX DU CHENE DU COUP DE FOUDRE
13:50 - Réunion 1 Course 1 - CHANTILLY
PLAT - 1600m - 50000.00€ - Corde à droite


DERNIÈRE MINUTE
 
 06
zone Gratuite

TIERCE SPÉCIAL
 06 - 08 - 09 - 13
Reservée aux abonnés

Arrivée: 8-9-13-5-12
---------------------------------------------------------------------0-------------------------

25/10/2021 HANDICAP DE MARSEILLE
13:50 - Réunion 1 Course 1 - MARSEILLE BORELY
PLAT - 2100m - 50000.00€ - Corde à gauche


DERNIÈRE MINUTE
 
 05
zone Gratuite

TIERCE SPÉCIAL
 05 - 10 - 09 - 02
Reservée aux abonnés

Arrivée: 10-9-2-13-5
---------------------------------------------------------------------0-------------------------

24/10/2021 PRIX "LE PARISIEN" (GRAND HANDICAP DE PARIS-LONGCHAMP)
15:15 - Réunion 1 Course 4 - LONGCHAMP
PLAT - 2200m - 70000.00€ - Corde à droite


DERNIÈRE MINUTE
 
 02
zone Gratuite

TIERCE SPÉCIAL
 02 - 05 - 10 - 06
Reservée aux abonnés

Arrivée: 5-10-6-14-1
---------------------------------------------------------------------0-------------------------


23/10/2021 PRIX DE VERSAILLES
15:15 - Réunion 1 Course 4 - SAINT CLOUD
PLAT - 1400m - 50000.00€ - Corde à gauche


DERNIÈRE MINUTE
 
 03
zone Gratuite

TIERCE SPÉCIAL
 03 - 10 - 11 - 07
Reservée aux abonnés

Arrivée: 10-11-7-16-3
---------------------------------------------------------------------0-------------------------

22/10/2021 PRIX THEMIS
20:15 - Réunion 1 Course 3 - PARIS-VINCENNES
TROT ATTELE - 2850m - 60000.00€ - Corde à gauche



DERNIÈRE MINUTE
 
 09
zone Gratuite

TIERCE SPÉCIAL
 07 - 04 - 02 - 09
Reservée aux abonnés

Arrivée:7-4-2-9-10 
---------------------------------------------------------------------0-------------------------

21/10/2021 PRIX SANTO PIETRO
13:50 - Réunion 1 Course 1 - AUTEUIL
HAIES - 3600m - 95000.00€


DERNIÈRE MINUTE
 
 15
zone Gratuite

TIERCE SPÉCIAL
 15 - 14 - 08 - 10
Reservée aux abonnés

Arrivée: 14-8-10-12-11
---------------------------------------------------------------------0-------------------------

20/10/2021 GRAND NATIONAL DU TROT
13:50 - Réunion 1 Course 1 - LA CAPELLE
TROT ATTELE - 2750m - 85000.00€ - Corde à gauche



DERNIÈRE MINUTE
 
 06
zone Gratuite

TIERCE SPÉCIAL
 06 - 03 - 05 - 07
Reservée aux abonnés

Arrivée: 6-3-5-7-2
---------------------------------------------------------------------0-------------------------

19/10/2021 PRIX ALGORAH
13:50 - Réunion 1 Course 1 - PARIS-VINCENNES
TROT ATTELE - 2100m - 60000.00€


DERNIÈRE MINUTE
 
 04
zone Gratuite

TIERCE SPÉCIAL
 04 - 09 - 10 - 15
Reservée aux abonnés

Arrivée: 9-10-15-3-2
---------------------------------------------------------------------0-------------------------

18/10/2021 TROTTING BLOODSTOCK - PRIX MFR BALLEROY (PRIX DES EQUIDAYS)
13:50 - Réunion 1 Course 1 - CLAIREFONTAINE
PLAT - 2400m - 55000.00€ - Corde à droite


DERNIÈRE MINUTE
 
 12
zone Gratuite

TIERCE SPÉCIAL
 12 - 02 - 07 - 04
Reservée aux abonnés

Arrivée: 2-7-4-10-1
---------------------------------------------------------------------0-------------------------

17/10/2021 PRIX DES ARENES DE LUTECE
15:15 - Réunion 1 Course 4 - LONGCHAMP
PLAT - 1700m - 50000.00€ - Corde à droite


DERNIÈRE MINUTE
 
 01
zone Gratuite

TIERCE SPÉCIAL
 00 - 00 - 00 - 00
Reservée aux abonnés

Arrivée
---------------------------------------------------------------------0-------------------------

16/10/2021 PRIX PRINCE D'ECOUEN
15:15 - Réunion 1 Course 3 - AUTEUIL
HAIES - 3900m - 95000.00€


DERNIÈRE MINUTE
 
 01
zone Gratuite

TIERCE SPÉCIAL
 01 - 13 - 15 - 12
Reservée aux abonnés

Arrivée: 15-12-13-3-14
---------------------------------------------------------------------0-------------------------

15/10/2021 PRIX HERA
20:15 - Réunion 1 Course 3 - PARIS-VINCENNES
TROT ATTELE - 2850m - 60000.00€ - Corde à gauche


DERNIÈRE MINUTE
 
 09
zone Gratuite

TIERCE SPÉCIAL
 09 - 15 - 08 - 16
Reservée aux abonnés

Arrivée: 8-15-9-16-6
---------------------------------------------------------------------0-------------------------

14/10/2021 PRIX CARRUS
13:51 - Réunion 1 Course 1 - LONGCHAMP
PLAT - 1600m - 55000.00€ - Corde à droite


DERNIÈRE MINUTE
 
 05
zone Gratuite

TIERCE SPÉCIAL
 08 - 05 - 07 - 09
Reservée aux abonnés

Arrivée: 8-5-9-12-7
---------------------------------------------------------------------0-------------------------

13/10/2021 PRIX DES GOBELINS
13:50 - Réunion 1 Course 1 - ENGHIEN
TROT ATTELE - 2875m - 60000.00€ - Corde à gauche


DERNIÈRE MINUTE
 
 15
zone Gratuite

TIERCE SPÉCIAL
 15 - 10 - 08 - 14
Reservée aux abonnés

Arrivée: 15-10-8-14-16
---------------------------------------------------------------------0-------------------------

12/10/2021 PRIX DU VAL D'OR
13:50 - Réunion 1 Course 1 - SAINT CLOUD
PLAT - 2400m - 50000.00€ - Corde à gauche


DERNIÈRE MINUTE
 
 13
zone Gratuite

TIERCE SPÉCIAL
 13 - 01 - 05 - 11
Reservée aux abonnés

Arrivée: 1-5-11-13-9
---------------------------------------------------------------------0-------------------------

11/10/2021 PRIX DU PONT DES ARTS
13:50 - Réunion 1 Course 1 - ENGHIEN
TROT ATTELE - 2875m - 60000.00€ - Corde à gauche



DERNIÈRE MINUTE
 
 12
zone Gratuite

TIERCE SPÉCIAL
 12 - 06 - 09 - 03
Reservée aux abonnés

Arrivée: 3-9-6-16-1
---------------------------------------------------------------------0-------------------------

10/10/2021 PRIX ANDRE ADELE
15:15 - Réunion 1 Course 3 - AUTEUIL
STEEPLE CHASE - 3700m - 95000.00€


DERNIÈRE MINUTE
 
 06
zone Gratuite

TIERCE SPÉCIAL
 06 - 08 - 03 - 14
Reservée aux abonnés

Arrivée: 8-3-14-5-2 
---------------------------------------------------------------------0-------------------------

09/10/2021 PRIX DU CABINET DES LIVRES
15:15 - Réunion 1 Course 3 - CHANTILLY
PLAT - 1200m - 50000.00€


DERNIÈRE MINUTE
 
 03
zone Gratuite

TIERCE SPÉCIAL
 03 - 10 - 02 - 05
Reservée aux abonnés

Arrivée: 10-2-5-7-3
---------------------------------------------------------------------0-------------------------

08/10/2021 PRIX "NIGHT SESSION" - CHARLEY MILLS
20:15 - Réunion 1 Course 3 - PARIS-VINCENNES
TROT ATTELE - 2700m - 67000.00€ - Corde à gauche


DERNIÈRE MINUTE
 
 09
zone Gratuite

TIERCE SPÉCIAL
 02 - 09 - 05 - 16
Reservée aux abonnés

Arrivée: 2-9-16-4-7
---------------------------------------------------------------------0-------------------------

07/10/2021 PRIX DE WINDSOR
13:50 - Réunion 1 Course 1 - SAINT CLOUD
PLAT - 2000m - 50000.00€ - Corde à gauche


DERNIÈRE MINUTE
 
 01
zone Gratuite

TIERCE SPÉCIAL
 01 - 07 - 09 - 05
Reservée aux abonnés

Arrivée: 7-9-5-2-11
---------------------------------------------------------------------0-------------------------

06/10/2021 GRAND PRIX ANJOU-MAINE
13:50 - Réunion 1 Course 4 - ANGERS
TROT ATTELE - 3125m - 100000.00€ - Corde à droite


DERNIÈRE MINUTE
 
 16
zone Gratuite

TIERCE SPÉCIAL
 16 - 08 - 05 - 04
Reservée aux abonnés

Arrivée: 16-8-5-3-7
---------------------------------------------------------------------0-------------------------

05/10/2021 PRIX DE LA CHAMBRE DE MONSIEUR LE PRINCE
13:50 - Réunion 1 Course 1 - CHANTILLY
PLAT - 2000m - 55000.00€ - Corde à droite


DERNIÈRE MINUTE
 
 01
zone Gratuite

TIERCE SPÉCIAL
 10 - 01 - 14 - 07
Reservée aux abonnés

Arrivée: 10-1-14-7-2
---------------------------------------------------------------------0-------------------------

04/10/2021 PRIX DE SAINT-CHAMOND
13:50 - Réunion 1 Course 1 - ENGHIEN
TROT ATTELE - 2150m - 60000.00€


DERNIÈRE MINUTE
 
 07
zone Gratuite

TIERCE SPÉCIAL
 09 - 07 - 01 - 13
Reservée aux abonnés

Arrivée: 9-7-13-4-10
---------------------------------------------------------------------0-------------------------

03/10/2021 QATAR PRIX DE L'ARC DE TRIOMPHE
16:05 - Réunion 1 Course 4 - LONGCHAMP
PLAT - 2400m - 5000000.00€ - Corde à droite


DERNIÈRE MINUTE
 
 04
zone Gratuite

TIERCE SPÉCIAL
 04 - 11 - 10 - 01
Reservée aux abonnés

Arrivée: 1-4-11-10-12
---------------------------------------------------------------------0-------------------------

02/10/2021 QATAR PRIX DU CADRAN

15:15 - Réunion 1 Course 4 - LONGCHAMP
PLAT - 4000m - 300000.00€ - Corde à droite


DERNIÈRE MINUTE
 
 10
zone Gratuite

TIERCE SPÉCIAL
 10 - 09 - 07 - 13
Reservée aux abonnés

Arrivée: 9-7-13-6-12
---------------------------------------------------------------------0-------------------------

1er/10/2021 PRIX AUSTRIA
20:15 - Réunion 1 Course 3 - PARIS-VINCENNES
TROT ATTELE - 2850m - 60000.00€ - Corde à gauche


DERNIÈRE MINUTE
 
 07
zone Gratuite

TIERCE SPÉCIAL
 07 - 12 - 03 - 13 
Reservée aux abonnés

Arrivée: 12-3-13-5-10
---------------------------------------------------------------------0-------------------------

30/09/2021 PRIX GUILLAUME DE PRACOMTAL
13:50 - Réunion 1 Course 1 - AUTEUIL
HAIES - 3600m - 95000.00€


DERNIÈRE MINUTE
 
 10
zone Gratuite

TIERCE SPÉCIAL
 10 - 01 - 09 - 11 
Reservée aux abonnés

Arrivée: 1-9-11-16-4
---------------------------------------------------------------------0-------------------------

29/09/2021 GRAND NATIONAL DU TROT PARIS-TURF
13:50 - Réunion 1 Course 1 - ARGENTAN
TROT ATTELE - 2875m - 85000.00€ - Corde à droite



DERNIÈRE MINUTE
 
 12
zone Gratuite

TIERCE SPÉCIAL
 12 - 05 - 09 - 10 
Reservée aux abonnés

Arrivée: 12-5-9-10-16

---------------------------------------------------------------------0-------------------------

28/09/2021 TECRAIL & FORNELLS INNOVATIONS (PRIX DE BEAUNE)
13:50 - Réunion 1 Course 1 - COMPIEGNE
HAIES - 3800m - 95000.00€


DERNIÈRE MINUTE
 
 05
zone Gratuite

TIERCE SPÉCIAL
 02 - 08 - 05 - 11 
Reservée aux abonnés

Arrivée: 2-8-5-11-1

---------------------------------------------------------------------0-------------------------

27/09/2021 PRIX DE LA MAIRIE DE MAUQUENCHY
13:50 - Réunion 1 Course 1 - MAUQUENCHY
TROT ATTELE - 2150m - 40000.00€



DERNIÈRE MINUTE
 
 02
zone Gratuite

TIERCE SPÉCIAL
 02 - 12 - 04 - 11 
Reservée aux abonnés

Arrivée: 12-4-11-2-15

---------------------------------------------------------------------0-------------------------

26/09/2021 PRIX D'ANCENIS
15:15 - Réunion 1 Course 4 - PARIS-VINCENNES
TROT ATTELE - 2850m - 60000.00€ - Corde à gauche



DERNIÈRE MINUTE
 
 08
zone Gratuite

TIERCE SPÉCIAL
 08 - 09 - 13 - 02
Reservée aux abonnés

Arrivée: 8-13-2-15-10

---------------------------------------------------------------------0-------------------------

25/09/2021 PRIX VIOLON II
15:15 - Réunion 1 Course 3 - AUTEUIL
STEEPLE CHASE - 4400m - 95000.00€


DERNIÈRE MINUTE
 
 05
zone Gratuite

TIERCE SPÉCIAL
 05 - 09 - 07 - 08
Reservée aux abonnés

Arrivée: 9-7-8-5-12

---------------------------------------------------------------------0-------------------------

24/09/2021 PRIX CLEOMEDE
20:15 - Réunion 1 Course 3 - PARIS-VINCENNES
TROT ATTELE - 2850m - 60000.00€ - Corde à gauche


DERNIÈRE MINUTE
 
 14
zone Gratuite

TIERCE SPÉCIAL
 12 - 11 - 14 - 13
Reservée aux abonnés

Arrivée: 12-11-14-13-5

---------------------------------------------------------------------0-------------------------


23/09/2021 PRIX BERNARD LE QUELLEC
13:50 - Réunion 1 Course 1 - PARIS-VINCENNES
TROT ATTELE - 2700m - 60000.00€ - Corde à gauche




DERNIÈRE MINUTE
 
 12
zone Gratuite

TIERCE SPÉCIAL
 06 - 12 - 07 - 11
Reservée aux abonnés

Arrivée: 6-12-7-5-11

---------------------------------------------------------------------0-------------------------

22/09/2021 PRIX FRANCE BLEU PICARDIE
13:50 - Réunion 1 Course 4 - AMIENS
TROT ATTELE - 2400m - 40000.00€




DERNIÈRE MINUTE
 
 10
zone Gratuite

TIERCE SPÉCIAL
 02 - 07 - 04 - 10
Reservée aux abonnés

Arrivée: 2-7-10-13-3

---------------------------------------------------------------------0-------------------------

21/09/2021 PRIX CALABRAIS
13:50 - Réunion 1 Course 1 - AUTEUIL
HAIES - 3600m - 95000.00€



DERNIÈRE MINUTE
 
 11
zone Gratuite

TIERCE SPÉCIAL
 11 - 14 - 04 - 08
Reservée aux abonnés

Arrivée: 14-4-8-5-10
---------------------------------------------------------------------0-------------------------

20/09/2021 PRIX ROLAND FOUGEDOIRE
13:50 - Réunion 1 Course 1 - FONTAINEBLEAU
PLAT - 1200m - 50000.00€



DERNIÈRE MINUTE
 
 06
zone Gratuite

TIERCE SPÉCIAL
 06 - 08 - 01 - 05
Reservée aux abonnés

Arrivée: 5-1-8-3-4
---------------------------------------------------------------------0-------------------------

19/09/2021 PRIX D'AVALLON
15:15 - Réunion 1 Course 4 - PARIS-VINCENNES
TROT ATTELE - 2100m - 60000.00€




DERNIÈRE MINUTE
 
 08
zone Gratuite

TIERCE SPÉCIAL
 08 - 04 - 02 - 01
Reservée aux abonnés

Arrivée: 4-2-1-11-10
---------------------------------------------------------------------0-------------------------

17/09/2021 PRIX OPHELIA
20:15 - Réunion 1 Course 3 - PARIS-VINCENNES
TROT ATTELE - 2850m - 60000.00€ - Corde à gauche



DERNIÈRE MINUTE
 
 12
zone Gratuite

TIERCE SPÉCIAL
 12 - 10 - 04 - 13
Reservée aux abonnés

Arrivée: 10-4-13-16-2
---------------------------------------------------------------------0-------------------------

16/09/2021 PRIX DE SAINTE-OPPORTUNE
18:20 - Réunion 1 Course 5 - LONGCHAMP
PLAT - 2400m - 50000.00€ - Corde à droite



DERNIÈRE MINUTE
 
 16
zone Gratuite

TIERCE SPÉCIAL
 16 - 04 - 15 - 14
Reservée aux abonnés

Arrivée: 14-15-4-8-13
---------------------------------------------------------------------0-------------------------

15/09/2021 PRIX #RACEANDCARE (PRIX DE LA PLAINE DU PUTOIS)
13:50 - Réunion 1 Course 1 - COMPIEGNE
PLAT - 1400m - 55000.00€ - Corde à gauche



DERNIÈRE MINUTE
 
 02
zone Gratuite

TIERCE SPÉCIAL
 02 - 05 - 13 - 12
Reservée aux abonnés

Arrivée: 5-13-12-7-8
---------------------------------------------------------------------0-------------------------

14/09/2021 PRIX PEUT-ETRE
13:50 - Réunion 1 Course 1 - SAINT CLOUD
PLAT - 2000m - 50000.00€ - Corde à gauche



DERNIÈRE MINUTE
 
 02
zone Gratuite

TIERCE SPÉCIAL
 02 - 09 - 03 - 14
Reservée aux abonnés

Arrivée: 9-3-14-1-13
---------------------------------------------------------------------0-------------------------

13/09/2021 GRAND PRIX DYNAVENA MAISAGRI
13:50 - Réunion 1 Course 4 - BEAUMONT DE LOMAGNE
TROT ATTELE - 2550m - 40000.00€ - Corde à droite



DERNIÈRE MINUTE
 
 05
zone Gratuite

TIERCE SPÉCIAL
 05 - 02 - 09 - 10
Reservée aux abonnés

Arrivée: 5-2-10-7-14
---------------------------------------------------------------------0-------------------------

12/09/2021 QATAR HANDICAP DES ARC TRIALS
15:15 - Réunion 1 Course 4 - LONGCHAMP
PLAT - 1400m - 50000.00€ - Corde à droite



DERNIÈRE MINUTE
 
 06
zone Gratuite

TIERCE SPÉCIAL
 06 - 16 - 10 - 05
Reservée aux abonnés

Arrivée: 16-10-5-6-12
---------------------------------------------------------------------0-------------------------

11/09/2021 PRIX D'EAUBONNE
15:15 - Réunion 1 Course 3 - PARIS-VINCENNES
TROT ATTELE - 2100m - 60000.00€



DERNIÈRE MINUTE
 
 11
zone Gratuite

TIERCE SPÉCIAL
 11 - 13 - 09 - 12
Reservée aux abonnés

Arrivée: 11-13-9-12-7
---------------------------------------------------------------------0-------------------------

10/09/2021 PRIX BAPTISTINA
20:15 - Réunion 1 Course 3 - PARIS-VINCENNES
TROT ATTELE - 2100m - 40000.00€



DERNIÈRE MINUTE
 
 10
zone Gratuite

TIERCE SPÉCIAL
 06 - 10 - 04 - 08
Reservée aux abonnés

Arrivée: 6-10-4-8-2
---------------------------------------------------------------------0-------------------------

09/09/2021 PRIX DE LONGCHAMP
18:20 - Réunion 1 Course 5 - LONGCHAMP
PLAT - 2200m - 55000.00€ - Corde à droite



DERNIÈRE MINUTE
 
 09
zone Gratuite

TIERCE SPÉCIAL
 09 - 05 - 08 - 07
Reservée aux abonnés

Arrivée: 9-5-8-7-15
---------------------------------------------------------------------0-------------------------

08/09/2021 GRAND NATIONAL DU TROT "PARIS-TURF"
13:50 - Réunion 1 Course 1 - PORNICHET
TROT ATTELE - 2725m - 85000.00€ - Corde à gauche




DERNIÈRE MINUTE
 
 07
zone Gratuite

TIERCE SPÉCIAL
 07 - 03 - 02 - 15
Reservée aux abonnés

Arrivée: 3-2-15-13-11
---------------------------------------------------------------------0-------------------------

07/09/2021 PRIX ALAIN ET GILLES DE GOULAINE
13:50 - Réunion 1 Course 4 - AUTEUIL
HAIES - 3600m - 95000.00




DERNIÈRE MINUTE
 
 01
zone Gratuite

TIERCE SPÉCIAL
 01 - 04 - 16 - 08
Reservée aux abonnés

Arrivée: 8-4-16-14-7
---------------------------------------------------------------------0-------------------------

06/09/2021PRIX V AND B - FINALE DU TROPHEE VERT
13:50 - Réunion 1 Course 5 - CRAON
TROT ATTELE - 2775m - 70000.00€ - Corde à droite



DERNIÈRE MINUTE
 
 16
zone Gratuite

TIERCE SPÉCIAL
 15 - 16 - 03 - 13
Reservée aux abonnés

Arrivée: 15-16-13-5-3
---------------------------------------------------------------------0-------------------------

05/09/2021 PRIX DES GRANDES CARRIERES
15:15 - Réunion 1 Course 4 - LONGCHAMP
PLAT - 1850m - 50000.00€ - Corde à droite



DERNIÈRE MINUTE
 
 03 
zone Gratuite

TIERCE SPÉCIAL
 06 - 01 - 03 - 15
Reservée aux abonnés

Arrivée: 6-1-3-12-9
---------------------------------------------------------------------0-------------------------

04/09/2021 SULKY 5 ANS FINALE - CRITERIUM DES 5 ANS
15:15 - Réunion 1 Course 3 - PARIS-VINCENNES
TROT ATTELE - 3000m - 200000.00€ - Corde à gauche



DERNIÈRE MINUTE
 
 16
zone Gratuite

TIERCE SPÉCIAL
 16 - 04 - 10 - 12
Reservée aux abonnés

Arrivée: 4-10-12-11-9
₩--------------------------------------------------------------0-------------------------


03/09/2021 PRIX DIOTIMA
20:15 - Réunion 1 Course 3 - PARIS-VINCENNES
TROT ATTELE - 2100m - 60000.00€



DERNIÈRE MINUTE
 
 03
zone Gratuite

TIERCE SPÉCIAL
 03 - 16 - 12 - 07
Reservée aux abonnés

Arrivée: 7-12-16-1-6
---------------------------------------------------------------------0-------------------------

02/09/2021 PRIX DE LA REINE MARGUERITE
18:20 - Réunion 1 Course 5 - LONGCHAMP
PLAT - 2250m - 50000.00€ - Corde à droite



DERNIÈRE MINUTE
 
 02
zone Gratuite

TIERCE SPÉCIAL
 02 - 14 - 01 - 15
Reservée aux abonnés

Arrivée

---------------------------------------------------------------------0-------------------------

1er/09/2021 PRIX JEAN BART
13:50 - Réunion 1 Course 2 - AUTEUIL
HAIES - 3600m - 95000.00€



DERNIÈRE MINUTE
 
 09
zone Gratuite

TIERCE SPÉCIAL
 13 - 09 - 06 - 01
Reservée aux abonnés

Arrivée: 13-9-1-7-10

---------------------------------------------------------------------0-------------------------

31/08/2021 PRIX REGION NORMANDIE
13:50 - Réunion 1 Course 1 - DIEPPE
PLAT - 1100m - 50000.00€



DERNIÈRE MINUTE
 
 05
zone Gratuite

TIERCE SPÉCIAL
 05 - 04 - 12 - 13
Reservée aux abonnés

Arrivée: 4-12-13-11-5

---------------------------------------------------------------------0-------------------------

30/08/2021 PRIX DE MORTAIN
13:50 - Réunion 1 Course 1 - PARIS-VINCENNES
TROT ATTELE - 2850m - 60000.00€ - Corde à gauche



DERNIÈRE MINUTE
 
 13
zone Gratuite

TIERCE SPÉCIAL
 10 - 13 - 12 - 06
Reservée aux abonnés

Arrivée: 10-13-12-11-7

---------------------------------------------------------------------0-------------------------

29/08/2021 PRIX CASINO BARRIERE DEAUVILLE
15:15 - Réunion 1 Course 4 - DEAUVILLE
PLAT - 1500m - 50000.00€ - Corde à droite



DERNIÈRE MINUTE
 
 12
zone Gratuite

TIERCE SPÉCIAL
 12 - 11 - 07 - 16
Reservée aux abonnés

Arrivée: 11-16-7-9-3

---------------------------------------------------------------------0-------------------------

28/08/2021 PRIX DE LA RECONVERSION DES CHEVAUX DE COURSES (PRIX DES CHENETTES)
15:15 - Réunion 1 Course 3 - DEAUVILLE
PLAT - 1900m - 55000.00€ - Corde à droite



DERNIÈRE MINUTE
 
 02
zone Gratuite

TIERCE SPÉCIAL
 02 - 11 - 05 - 10
Reservée aux abonnés

Arrivée: 11-5-10-8-13

---------------------------------------------------------------------0-------------------------

27/08/2021 PRIX D'ARGENTAN
20:15 - Réunion 1 Course 3 - CABOURG
TROT ATTELE - 2725m - 40000.00€



DERNIÈRE MINUTE
 
 11
zone Gratuite

TIERCE SPÉCIAL
 11 - 08 - 07 - 09
Reservée aux abonnés

Arrivée: 8-7-9-11-12

---------------------------------------------------------------------0-------------------------

26/08/2021 HANDICAP DE LA MANCHE
20:15 - Réunion 1 Course 8 - DEAUVILLE
PLAT - 3200m - 55000.00€ - Corde à droite



DERNIÈRE MINUTE
 
 02
zone Gratuite

TIERCE SPÉCIAL
 02 - 01 - 10 - 05
Reservée aux abonnés

Arrivée: 1-10-5-6-8

---------------------------------------------------------------------0-------------------------

25/08/2021 PRIX DE BEAUNE
20:16 - Réunion 1 Course 4 - PARIS-VINCENNES
TROT ATTELE - 2700m - 60000.00€ - Corde à gauche



DERNIÈRE MINUTE
 
 10
zone Gratuite

TIERCE SPÉCIAL
 10 - 11 - 08 - 01
Reservée aux abonnés

Arrivée: 10-11-8-4-1

---------------------------------------------------------------------0-------------------------

24/08/2021 PRIX DES GRENIERS A SEL
13:50 - Réunion 1 Course 1 - DEAUVILLE
PLAT - 2000m - 50000.00€ - Corde à droite



DERNIÈRE MINUTE
 
 03
zone Gratuite

TIERCE SPÉCIAL
 03 - 04 - 06 - 05
Reservée aux abonnés

Arrivée: 4-6-5-8-3

---------------------------------------------------------------------0-------------------------

23/08/2021 47EME FESTIVAL DU CINEMA AMERICAIN DE DEAUVILLE (GRAND STEEPLE-CHASE DE LA VILLE DE DEAUVILLE)
13:50 - Réunion 1 Course 2 - CLAIREFONTAINE
STEEPLE CHASE - 4500m - 95000.00€



DERNIÈRE MINUTE
 
 01
zone Gratuite

TIERCE SPÉCIAL
 01 - 02 - 07 - 15
Reservée aux abonnés

Arrivée: 2-7-15-9-6

---------------------------------------------------------------------0-------------------------

22/08/2021 DARLEY PRIX DE PONT-L'EVEQUE
15:15 - Réunion 1 Course 3 - DEAUVILLE
PLAT - 1900m - 50000.00€ - Corde à droite



DERNIÈRE MINUTE
 
 02
zone Gratuite

TIERCE SPÉCIAL
 02 - 03 - 01 - 15
Reservée aux abonnés

Arrivée: 2-3-15-6-1

---------------------------------------------------------------------0-------------------------

21/08/2021 PRIX DE BALLEROY
15:15 - Réunion 1 Course 3 - DEAUVILLE
PLAT - 1400m - 55000.00€



DERNIÈRE MINUTE
 
 01
zone Gratuite

TIERCE SPÉCIAL
 01 - 15 - 04 - 10
Reservée aux abonnés

Arrivée: 1-4-10-8-9

---------------------------------------------------------------------0-------------------------

20/08/2021 PRIX DE VILLEDIEU-LES-POELES
20:15 - Réunion 1 Course 3 - CABOURG
TROT ATTELE - 2750m - 40000.00€ - Corde à droite



DERNIÈRE MINUTE
 
 12
zone Gratuite

TIERCE SPÉCIAL
 09 - 12 - 03 - 01
Reservée aux abonnés

Arrivée: 9-12-3-1-13

---------------------------------------------------------------------0-------------------------

19/08/2021 PRIX APOLLINE MATIN - PRIX DE BARNEVILLE
20:15 - Réunion 1 Course 7 - DEAUVILLE
PLAT - 2500m - 50000.00€ - Corde à droite



DERNIÈRE MINUTE
 
 16
zone Gratuite

TIERCE SPÉCIAL
  16 - 05 - 13 - 03
Reservée aux abonnés

Arrivée: 5-13-3-10-12

---------------------------------------------------------------------0-------------------------

18/08/2021 PRIX DE LA VILLE D'ENGHIEN-LES-BAINS
20:15 - Réunion 1 Course 4 - ENGHIEN
TROT ATTELE - 2875m - 40000.00€ - Corde à gauche



DERNIÈRE MINUTE
 
 13
zone Gratuite

TIERCE SPÉCIAL
 11 - 08 - 13 - 02
Reservée aux abonnés

Arrivée: 11-8-13-5-2

---------------------------------------------------------------------0-------------------------

17/08/2021 PRIX LA CABANE PERCHEE (PRIX FRANCOIS ANDRE)
13:50 - Réunion 1 Course 1 - DEAUVILLE
PLAT - 1400m - 55000.00€



DERNIÈRE MINUTE
 
 14
zone Gratuite

TIERCE SPÉCIAL
 14 - 01 - 07 - 15
Reservée aux abonnés

Arrivée: 15-7-1-14-8

---------------------------------------------------------------------0-------------------------

16/08/2021 PRIX "PLAY BONHEUR" (PRIX ROBERTET)
13:50 - Réunion 1 Course 1 - CLAIREFONTAINE
PLAT - 1800m - 50000.00€ - Corde à droite



DERNIÈRE MINUTE
 
 01
zone Gratuite

TIERCE SPÉCIAL
 01 - 07 - 13 - 11
Reservée aux abonnés

Arrivée: 7-13-11-14-8


---------------------------------------------------------------------0-------------------------

15/08/2021 GRAND HANDICAP DES SPRINTERS
15:15 - Réunion 1 Course 3 - DEAUVILLE
PLAT - 1200m - 70000.00€



DERNIÈRE MINUTE
 
 07
zone Gratuite

TIERCE SPÉCIAL
 07 - 09 - 04 - 10
Reservée aux abonnés

Arrivée: 7-9-4-2-6

--------------------------------------------------------------------------0-------------------------

14/08/2021 PRIX HONG KONG JOCKEY CLUB - PRIX DU VIEUX BASSIN
15:15 - Réunion 1 Course 3 - DEAUVILLE
PLAT - 2500m - 55000.00€ - Corde à droite



DERNIÈRE MINUTE
 
 02
zone Gratuite

TIERCE SPÉCIAL
 02 - 06 - 01 - 12
Reservée aux abonnés

Arrivée: 6-1-12-10-11

--------------------------------------------------------------------------0------------------------- 

13/08/2021 PRIX BRUNO COQUATRIX
20:15 - Réunion 1 Course 3 - CABOURG
TROT ATTELE - 2750m - 40000.00€ - Corde à droite



DERNIÈRE MINUTE
 
 05
zone Gratuite

TIERCE SPÉCIAL
 05 - 01 - 08 - 09
Reservée aux abonnés

Arrivée: 1-8-9-3-5

--------------------------------------------------------------------------0------------------------- 

12/08/2021 PRIX DE LA HAUTE-SAONE
20:15 - Réunion 1 Course 4 - ENGHIEN
TROT ATTELE - 2150m - 60000.00€



DERNIÈRE MINUTE
 
 08
zone Gratuite

TIERCE SPÉCIAL
 08 - 07 - 04 - 14
Reservée aux abonnés

Arrivée: 14-8-4-11-9

--------------------------------------------------------------------------0------------------------- 

11/08/2021 GRAND NATIONAL DU TROT "PARIS-TURF"
20:15 - Réunion 1 Course 7 - SAINT MALO
TROT ATTELE - 2950m - 85000.00€ - Corde à droite



DERNIÈRE MINUTE
 
 12
zone Gratuite

TIERCE SPÉCIAL
 12 - 01 - 15 - 02
Reservée aux abonnés

Arrivée: 15-1-2-4-5

--------------------------------------------------------------------------0------------------------- 

10/08/2021 PRIX DU SECOURS POPULAIRE
13:50 - Réunion 1 Course 1 - DEAUVILLE
PLAT - 1600m - 50000.00€



DERNIÈRE MINUTE
 
 05
zone Gratuite

TIERCE SPÉCIAL
 05 - 04 - 09 - 06
Reservée aux abonnés

Arrivée: 4-9-6-13-8

--------------------------------------------------------------------------0------------------------- 

09/08/2021 PRIX JOURNAL LE VEINARD (PRIX DE LA COTE DE NACRE)
13:50 - Réunion 1 Course 1 - CLAIREFONTAINE
PLAT - 2200m - 50000.00€ - Corde à droite



DERNIÈRE MINUTE
 
 07
zone Gratuite

TIERCE SPÉCIAL
 07 - 05 - 13 - 16
Reservée aux abonnés

Arrivée: 7-16-13-4-14

--------------------------------------------------------------------------0------------------------- 

08/08/2021 PRIX VALPARAISO SPORTING CLUB - GRAND HANDICAP DE DEAUVILLE
15:15 - Réunion 1 Course 4 - DEAUVILLE
PLAT - 1600m - 100000.00€



DERNIÈRE MINUTE
 
 06
zone Gratuite

TIERCE SPÉCIAL
 06 - 05 - 14 - 08
Reservée aux abonnés

Arrivée: 5-14-8-2-7

--------------------------------------------------------------------------0------------------------- 

07/08/2021 GRAND HANDICAP DES COLLECTIVITES LOCALES
15:15 - Réunion 1 Course 3 - DEAUVILLE
PLAT - 1900m - 70000.00€ - Corde à droite



DERNIÈRE MINUTE
 
 06
zone Gratuite

TIERCE SPÉCIAL
 06 - 10 - 04 - 03
Reservée aux abonnés

Arrivée: 10-3-6-14-11

--------------------------------------------------------------------------0------------------------- 

06/08/2021 PRIX DES LYCOPODES
20:15 - Réunion 1 Course 3 - CABOURG
TROT ATTELE - 2750m - 40000.00€ - Corde à droite



DERNIÈRE MINUTE
 
 15
zone Gratuite

TIERCE SPÉCIAL
 15 - 08 - 04 - 14
Reservée aux abonnés

Arrivée: 8-4-14-3-7

--------------------------------------------------------------------------0------------------------- 

05/08/2021 PRIX DE LA FEDERATION DES ELEVEURS DU GALOP - PRIX DU CHAMP DURA
20:15 - Réunion 1 Course 7 - DEAUVILLE
PLAT - 1200m - 55000.00€



DERNIÈRE MINUTE
 
 11
zone Gratuite

TIERCE SPÉCIAL
 11 - 06 - 15 - 04
Reservée aux abonnés

Arrivée: 6-4-15-5-11

--------------------------------------------------------------------------0------------------------- 

04/08/2021 PRIX DU PARC DES PRINCES
20:15 - Réunion 1 Course 4 - ENGHIEN
TROT ATTELE - 2150m - 67000.00€



DERNIÈRE MINUTE
 
 12
zone Gratuite

TIERCE SPÉCIAL
 12 - 06 - 11 - 08
Reservée aux abonnés

Arrivée: 6-12-8-11-1

--------------------------------------------------------------------------0------------------------- 

03/08/2021 PRIX DE LA VILLA LUCIE
13:50 - Réunion 1 Course 2 - DEAUVILLE
PLAT - 1300m - 50000.00€ - Corde à droite



DERNIÈRE MINUTE
 
 07
zone Gratuite

TIERCE SPÉCIAL
 05 - 01 - 10 - 07
Reservée aux abonnés

Arrivée: 5-10-7-14-15

--------------------------------------------------------------------------0------------------------- 

02/08/2021 PRIX DJSL BOIS (PRIX DE LA ROUTE DES VACHES)
13:50 - Réunion 1 Course 1 - DIEPPE
PLAT - 1800m - 55000.00€ - Corde à droite



DERNIÈRE MINUTE
 
 01
zone Gratuite

TIERCE SPÉCIAL
 13 - 01 - 03 - 08
Reservée aux abonnés

Arrivée: 13-1-3-10-8

--------------------------------------------------------------------------0------------------------- 

1er/08/2021 PRIX AUBERGE DE LA SOURCE (PRIX DE LA COTE FLEURIE)
15:15 - Réunion 1 Course 3 - CLAIREFONTAINE
PLAT - 2400m - 50000.00€ - Corde à droite



DERNIÈRE MINUTE
 
 08
zone Gratuite

TIERCE SPÉCIAL
 08 - 05 - 06 - 10
Reservée aux abonnés

Arrivée: 8-6-10-9-1

--------------------------------------------------------------------------0------------------------- 

31/07/2021 PRIX DOMINIQUE SAVARY
15:15 - Réunion 1 Course 3 - ENGHIEN
TROT ATTELE - 2150m - 60000.00€



DERNIÈRE MINUTE
 
 01
zone Gratuite

TIERCE SPÉCIAL
 02 - 01 - 05 - 10
Reservée aux abonnés

Arrivée: 2-1-10-3-5

--------------------------------------------------------------------------0------------------------- 

30/07/2021 PRIX HENRI BALLIERE
20:15 - Réunion 1 Course 4 - CABOURG
TROT ATTELE - 2750m - 40000.00€ - Corde à droite



DERNIÈRE MINUTE
 
 15
zone Gratuite

TIERCE SPÉCIAL
 15 - 07 - 06 - 16
Reservée aux abonnés

Arrivée: 7-6-16-9-4

--------------------------------------------------------------------------0------------------------- 

29/07/2021 GRANDE COURSE DE HAIES - PRIX GUILLAUME D'ORNANO
20:15 - Réunion 1 Course 8 - CLAIREFONTAINE
HAIES - 3600m - 100000.00€



DERNIÈRE MINUTE
 
 08
zone Gratuite

TIERCE SPÉCIAL
 08 - 11 - 10 - 13
Reservée aux abonnés

Arrivée: 10-13-11-3-5

--------------------------------------------------------------------------0------------------------- 

28/07/2021 PRIX DU MEDOC
20:15 - Réunion 1 Course 5 - ENGHIEN
TROT ATTELE - 2875m - 60000.00€ - Corde à gauche



DERNIÈRE MINUTE
 
 03
zone Gratuite

TIERCE SPÉCIAL
 14 - 03 - 13 - 01
Reservée aux abonnés

Arrivée: 14-3-13-1-6
-------------------------------------------------------------------0------------------------- 

27/07/2021 PRIX DES HAUTS-DE-FRANCE
13:50 - Réunion 1 Course 1 - COMPIEGNE
PLAT - 1800m - 50000.00€ - Corde à gauche



DERNIÈRE MINUTE
 
 11
zone Gratuite

TIERCE SPÉCIAL
 11 - 07 - 16 - 03
Reservée aux abonnés

Arrivée: 7-16-3-11-1

--------------------------------------------------------------------------0------------------------- 

26/07/2021 PRIX TOYOTA TOYS MOTORS (PRIX DE SUSSEX)
13:50 - Réunion 1 Course 1 - DIEPPE
PLAT - 2400m - 50000.00€ - Corde à droite



DERNIÈRE MINUTE
 
 10
zone Gratuite

TIERCE SPÉCIAL
 10 - 08 - 03 - 07
Reservée aux abonnés

Arrivée: 8-3-7-1-16

--------------------------------------------------------------------------0------------------------- 

25/07/2021 PRIX LE JOURNAL "LE VEINARD"
15:15 - Réunion 1 Course 3 - LA TESTE DE BUCH
PLAT - 2000m - 50000.00€ - Corde à droite



DERNIÈRE MINUTE
 
 01
zone Gratuite

TIERCE SPÉCIAL
 01 - 03 - 11 - 12
Reservée aux abonnés

Arrivée: 3-11-12-5-1

--------------------------------------------------------------------------0------------------------- 

24/07/2021 PRIX DE L'ESPLANADE
15:15 - Réunion 1 Course 3 - ENGHIEN
TROT ATTELE - 2875m - 40000.00€ - Corde à gauche



DERNIÈRE MINUTE
 
 05
zone Gratuite

TIERCE SPÉCIAL
 05 - 03 - 11 - 13
Reservée aux abonnés

Arrivée: 3-13-11-4-10

--------------------------------------------------------------------------0------------------------- 

23/07/2021 PRIX DES FUSCHIAS
20:15 - Réunion 1 Course 3 - CABOURG
TROT ATTELE - 2750m - 40000.00€ - Corde à droite



DERNIÈRE MINUTE
 
 12
zone Gratuite

TIERCE SPÉCIAL
 12 - 10 - 11 - 09
Reservée aux abonnés

Arrivée: 12-1-09-3-7

--------------------------------------------------------------------------0------------------------- 

22/07/2021 PRIX DE LA VENUS DE PARIS - GRAND PRIX DES FEMMES JOCKEYS
20:15 - Réunion 1 Course 7 - LONGCHAMP
PLAT - 1900m - 50000.00€ - Corde à droite




DERNIÈRE MINUTE
 
 01
zone Gratuite

TIERCE SPÉCIAL
 01 - 03 - 05 - 12
Reservée aux abonnés

Arrivée: 3-5-12-4-2

--------------------------------------------------------------------------0------------------------- 

21/07/2021 PRIX IMPERATRICE EUGENIE
20:15 - Réunion 1 Course 3 - VICHY
PLAT - 2400m - 55000.00€ - Corde à droite



DERNIÈRE MINUTE
 
 05
zone Gratuite

TIERCE SPÉCIAL
 05 - 02 - 13 - 16
Reservée aux abonnés

Arrivée: 16-2-13-14-5

--------------------------------------------------------------------------0------------------------- 

20/07/2021 PRIX VICHY COMMUNAUTE
13:50 - Réunion 1 Course 1 - VICHY
PLAT - 3000m - 50000.00€ - Corde à droite



DERNIÈRE MINUTE
 
 08
zone Gratuite

TIERCE SPÉCIAL
08 - 02 - 07 - 06
Reservée aux abonnés

Arrivée: 8-2-7-13-6

--------------------------------------------------------------------------0------------------------- 

19/07/2021 PRIX DE LA BAIE DE VILLEFRANCHE
19:00 - Réunion 1 Course 2 - CAGNES-SUR-MER
TROT ATTELE - 2925m - 40000.00€ - Corde à gauche

    



DERNIÈRE MINUTE
 
 13
zone Gratuite

TIERCE SPÉCIAL
13 - 12 - 07 - 11
Reservée aux abonnés

Arrivée: 12-7-11-6-5

--------------------------------------------------------------------------0-------------------------  


18/07/2021 PRIX DE LA FORET DE CHANTILLY
15:15 - Réunion 1 Course 3 - CHANTILLY
PLAT - 2200m - 50000.00€ - Corde à droite



DERNIÈRE MINUTE
 
 04
zone Gratuite

TIERCE SPÉCIAL
 04 - 10 - 14 - 03
Reservée aux abonnés

Arrivée: 4-14-3-5-12

--------------------------------------------------------------------------0-------------------------     

17/07/2021 PRIX DE VILLIERS
15:15 - Réunion 1 Course 3 - ENGHIEN
TROT ATTELE - 2150m - 43000.00€

          



DERNIÈRE MINUTE
 
 07
zone Gratuite

TIERCE SPÉCIAL
 02 - 05 - 07 - 04
Reservée aux abonnés

Arrivée: 2-5-7-6-4
--------------------------------------------------------------------------0-------------------------

16/07/2021 GRAND NATIONAL DU TROT "PARIS-TURF"

20:15 - Réunion 1 Course 3 - LES SABLES D'OLONNE
TROT ATTELE - 2650m - 85000.00€




DERNIÈRE MINUTE
 
 08
zone Gratuite

TIERCE SPÉCIAL
 08 - 10 - 06 - 05
Reservée aux abonnés

Arrivée: 10-6-5-8-1
--------------------------------------------------------------------------0-------------------------

15/07/2021 PRIX DE L'OPERA
20:15 - Réunion 1 Course 7 - ENGHIEN
TROT ATTELE - 2150m - 58000.00€




DERNIÈRE MINUTE
 
 15
zone Gratuite

TIERCE SPÉCIAL
 15 - 02 - 08 - 05
Reservée aux abonnés

Arrivée: 2-8-5-15-3
--------------------------------------------------------------------------0-------------------------

14/07/2021 LONGINES HANDICAP DE LA FETE NATIONALE
16:50 - Réunion 1 Course 2 - LONGCHAMP
PLAT - 1600m - 50000.00€ - Corde à droite




DERNIÈRE MINUTE
 
 02
zone Gratuite

TIERCE SPÉCIAL
 02 - 13 - 12 - 03
Reservée aux abonnés

Arrivée: 2-13-12-10-3
--------------------------------------------------------------------------0-------------------------

13/07/2021 PRIX LE ROI SOLEIL
13:50 - Réunion 1 Course 2 - DEAUVILLE
PLAT - 1300m - 55000.00€




DERNIÈRE MINUTE
 

 07
zone Gratuite

TIERCE SPÉCIAL
 07 - 04 - 15 - 09
Reservée aux abonnés

Arrivée: 7-4-15-12-13
--------------------------------------------------------------------------0-------------------------

12/07/2021 PRIX XAVIER HUNAULT, PRÉSIDENT FONDATEUR
13:50 - Réunion 1 Course 4 - CHATEAUBRIANT
TROT ATTELE - 3000m - 35000.00€ - Corde à droite




DERNIÈRE MINUTE
 
 03
zone Gratuite

TIERCE SPÉCIAL
 15 - 03 - 09 - 01
Reservée aux abonnés

Arrivée: 15-3-1-12-5
--------------------------------------------------------------------------0-------------------------

11/07/2021 PRIX DE LA PLACE MORNY
15:15 - Réunion 1 Course 3 - DEAUVILLE
PLAT - 1200m - 50000.00€



DERNIÈRE MINUTE
 
 09
zone Gratuite

TIERCE SPÉCIAL
 09 - 02 - 08 - 12
Reservée aux abonnés

Arrivée: 9-2-12-16-8
--------------------------------------------------------------------------0-------------------------


                10/07/2021 PRIX DE LA MANCHE

15:15 - Réunion 1 Course 3 - ENGHIEN
TROT ATTELE - 2875m - 80000.00€ - Corde à gauche




DERNIÈRE MINUTE
 
 11
zone Gratuite

TIERCE SPÉCIAL
 10 - 11 - 03 - 09
Reservée aux abonnés

Arrivée: 10 - 11 - 3 - 9 - 1
--------------------------------------------------------------------------0-------------------------

09/07/2021 PRIX DE GRANVILLE
20:15 - Réunion 1 Course 3 - CABOURG
TROT ATTELE - 2750m - 32000.00€ - Corde à droite



DERNIÈRE MINUTE
 
 09
zone Gratuite

TIERCE SPÉCIAL
 09 - 07 - 03 - 13
Reservée aux abonnés

Arrivée: 7 - 3 - 13 - 2 - 12
--------------------------------------------------------------------------0-------------------------


08/07/2021 PRIX DU PETIT PRÉ
20:15 - Réunion 1 Course 9 - LONGCHAMP
PLAT - 1800m - 55000.00€ - Corde à droite



DERNIÈRE MINUTE
 
 07
zone Gratuite

TIERCE SPÉCIAL
 08 - 03 - 07 - 11
Reservée aux abonnés