Paris ( France)Tel & WhatsApp: +33 7 896 35 372
Agent Afrique Tel & whatsapp: +226 64 057 666


Contact: tiercespecial57@gmail.com

---------------------------------------------------------------------

 

            05/12/2022 PRIX DES ALPES
13:50 - Réunion 1 Course 1 - PARIS-VINCENNES
TROT ATTELE - 2100m - 53000.00€



DERNIÈRE MINUTE
 
04
zone Gratuite

TIERCE SPÉCIAL
 04 - 12 - 08 - 05
Reservée aux abonnés 

Arrivée:12-5-8-4-6

---------------------------------------------------------------------0-------------------------


04/12/2022 FINALE GRAND NATIONAL DU TROT PARISTURF
15:15 - Réunion 1 Course 8 - PARIS-VINCENNES
TROT ATTELE - 2850m - 150000.00€ - Corde à gauche



DERNIÈRE MINUTE
 
03
zone Gratuite

TIERCE SPÉCIAL
 03 - 02 - 04 - 13
Reservée aux abonnés 

Arrivée:3-2-4-5-13

---------------------------------------------------------------------0-------------------------


03/12/2022 PRIX DE SAINT-GEORGES DE DIDONNE
15:15 - Réunion 1 Course 3 - PARIS-VINCENNES
TROT ATTELE - 2850m - 61000.00€ - Corde à gauche



DERNIÈRE MINUTE
 
05
zone Gratuite

TIERCE SPÉCIAL
 05 - 09 - 12 - 13
Reservée aux abonnés 

Arrivée:9-5-13-12-11

---------------------------------------------------------------------0-------------------------

02/12/2022 PRIX MELUSINA
20:15 - Réunion 1 Course 4 - PARIS-VINCENNES
TROT ATTELE - 2100m - 44000.00€


DERNIÈRE MINUTE
 
01
zone Gratuite

TIERCE SPÉCIAL
 01 - 07 - 11 - 10
Reservée aux abonnés 

Arrivée:10-7-11-9-2

---------------------------------------------------------------------0-------------------------


1er/12/2022 PRIX DE BOURIGNY
13:50 - Réunion 1 Course 1 - PARIS-VINCENNES
TROT ATTELE - 2100m - 70000.00€



DERNIÈRE MINUTE
 
15
zone Gratuite

TIERCE SPÉCIAL
 15 - 02 - 04 - 07
Reservée aux abonnés 

Arrivée:2-7-4-16-8

---------------------------------------------------------------------0-------------------------

30/11/2022 PRIX DU CHATEAU DE BAYEUX
13:55 - Réunion 1 Course 1 - DEAUVILLE
PLAT - 2500m - 50000.00€ - Corde à droite



DERNIÈRE MINUTE
 
13
zone Gratuite

TIERCE SPÉCIAL
 06 - 13 - 03 - 09
Reservée aux abonnés 

Arrivée:6-3-9-16-4

---------------------------------------------------------------------0-------------------------

29/11/2022 PRIX DU MANOIR DE LA SALAMANDRE
13:50 - Réunion 1 Course 2 - DEAUVILLE
PLAT - 1900m - 50000.00€ - Corde à droite



DERNIÈRE MINUTE
 
04
zone Gratuite

TIERCE SPÉCIAL
 04 - 11 - 01 - 09
Reservée aux abonnés 

Arrivée:9-1-11-15-13

---------------------------------------------------------------------0-------------------------

28/11/2022 PRIX DE MESLAY DU MAINE
13:50 - Réunion 1 Course 1 - PARIS-VINCENNES
TROT ATTELE - 2700m - 61000.00€ - Corde à gauche


DERNIÈRE MINUTE
 
12
zone Gratuite

TIERCE SPÉCIAL
 12 - 08 - 15 - 05
Reservée aux abonnés 

Arrivée:8-15-5-7-14

---------------------------------------------------------------------0-------------------------


27/11/2022 PRIX MAX SICARD - 17EME ETAPE DU            DEFI DU GALOP
  15:50 - Réunion 1 Course 1 - TOULOUSE
       PLAT - 2400m - 60000.00€ - Corde à droite



DERNIÈRE MINUTE
 
17
zone Gratuite

TIERCE SPÉCIAL
 17 - 08 - 16 - 05
Reservée aux abonnés 

Arrivée:8-16-5-10-12

---------------------------------------------------------------------0-------------------------


26/11/2022 PRIX DANIEL MIETTE
15:15 - Réunion 1 Course 7 - PARIS-VINCENNES
TROT ATTELE - 2700m - 75000.00€ - Corde à gauche


DERNIÈRE MINUTE
 
03
zone Gratuite

TIERCE SPÉCIAL
 00 - 00 - 00 - 00
Reservée aux abonnés 

Arrivée:

---------------------------------------------------------------------0-------------------------


25/11/2022 PRIX TRITON
20:15 - Réunion 1 Course 3 - PARIS-VINCENNES
TROT ATTELE - 2700m - 44000.00€ - Corde à gauche


DERNIÈRE MINUTE
 
16
zone Gratuite

TIERCE SPÉCIAL
 16 - 08 - 14 - 02
Reservée aux abonnés 

Arrivée:8-14-2-4-12

---------------------------------------------------------------------0-------------------------


24/11/2022 PRIX DE SILLE-LE-GUILLAUME
13:50 - Réunion 1 Course 1 - PARIS-VINCENNES
TROT ATTELE - 2850m - 65000.00€ - Corde à gauche



DERNIÈRE MINUTE
 
12
zone Gratuite

TIERCE SPÉCIAL
 12 - 13 - 07 - 16
Reservée aux abonnés 

Arrivée:13-7-16-14-4

---------------------------------------------------------------------0-------------------------


23/11/2022 GRAND NATIONAL DU TROT
13:55 - Réunion 1 Course 1 - MAUQUENCHY
TROT ATTELE - 2850m - 90000.00€ - Corde à gauche


DERNIÈRE MINUTE
 
04
zone Gratuite

TIERCE SPÉCIAL
 04 - 03 - 02 - 07
Reservée aux abonnés 

Arrivée:3-2-7-6-13

---------------------------------------------------------------------0-------------------------


22/11/2022 PRIX D'Utah Beach
13:50 - Réunion 1 Course 1 - Deauville
Plat - 1300m - 50000.00€ - Corde à droite



DERNIÈRE MINUTE
 
13
zone Gratuite

TIERCE SPÉCIAL
 13 - 07 - 10 - 04
Reservée aux abonnés 

Arrivée:7-13-4-3-10

---------------------------------------------------------------------0-------------------------


21/11/2022 PRIX DE MONTIGNAC-CHARENTE
13:50 - Réunion 1 Course 1 - PARIS-VINCENNES
TROT ATTELE - 2700m - 90000.00€ - Corde à gauche



DERNIÈRE MINUTE
 
04
zone Gratuite

TIERCE SPÉCIAL
 04 - 01 - 11 - 03
Reservée aux abonnés 

Arrivée:4-11-3-5-6

---------------------------------------------------------------------0-------------------------

20/11/2022 PRIX D'AMERIQUE RACES ZETURF Q1
15:15 - Réunion 1 Course 4 - PARIS-VINCENNES
TROT ATTELE - 2700m - 120000.00€ - Corde à gauche



DERNIÈRE MINUTE
 
13
zone Gratuite

TIERCE SPÉCIAL
 13 - 02 - 15 - 08
Reservée aux abonnés 

Arrivée:2-15-8-17-7

---------------------------------------------------------------------0-------------------------


19/11/2022 PRIX MARC ANTONY
15:15 - Réunion 1 Course 6 - AUTEUIL
HAIES - 3900m - 95000.00€


DERNIÈRE MINUTE
 
02
zone Gratuite

TIERCE SPÉCIAL
 02 - 01 - 04 - 08
Reservée aux abonnés 

Arrivée:1-4-8-9-3

---------------------------------------------------------------------0-------------------------


18/11/2022 PRIX MIZAR
20:15 - Réunion 1 Course 3 - PARIS-VINCENNES
TROT ATTELE - 2100m - 51000.00€



DERNIÈRE MINUTE
 
08
zone Gratuite

TIERCE SPÉCIAL
 08 - 03 - 14 - 02
Reservée aux abonnés 

Arrivée:3-14-3-13-11

---------------------------------------------------------------------0-------------------------

17/11/2022 PRIX DE LA VALLEE DE CHEVREUSE
13:50 - Réunion 1 Course 3 - SAINT CLOUD
    PLAT - 2000m - 50000.00€ - Corde à gauche


DERNIÈRE MINUTE
 
07
zone Gratuite

TIERCE SPÉCIAL
 07 - 13 - 11 - 09
Reservée aux abonnés 

Arrivée:11-9-13-6-10

---------------------------------------------------------------------0-------------------------

16/11/2022 PRIX DU CABINET DES CLOUETS
13:55 - Réunion 1 Course 4 - CHANTILLY
PLAT - 1600m - 50000.00€ - Corde à droite


DERNIÈRE MINUTE
 
09
zone Gratuite

TIERCE SPÉCIAL
 09 - 04 - 07 - 06
Reservée aux abonnés 

Arrivée:4-7-6-10-8

---------------------------------------------------------------------0-------------------------


15/11/2022 PRIX DE LA CHAMBRE DE MONSIEUR LE                      PRINCE
13:50 - Réunion 1 Course 5 - CHANTILLY
PLAT - 1800m - 55000.00€ - Corde à droite



DERNIÈRE MINUTE
 
05
zone Gratuite

TIERCE SPÉCIAL
 05 - 07 - 12 - 11
Reservée aux abonnés 

Arrivée:12-7-11-1-2

---------------------------------------------------------------------0-------------------------


14/11/2022 PRIX BEACHCOMBER RESORTS & HOTELS
13:50 - Réunion 1 Course 4 - BORDEAUX-LE BOUSCAT
TROT ATTELE - 2650m - 38000.00€ - Corde à droite



DERNIÈRE MINUTE
 
02
zone Gratuite

TIERCE SPÉCIAL
 07 - 02 - 13 - 10
Reservée aux abonnés

Arrivée:7-2-13-10-2

---------------------------------------------------------------------0-------------------------


13/11/2022 PRIX RMC DECOUVERTE - PRIX COUNT SCHOMBERG
15:15 - Réunion 1 Course 5 - AUTEUIL
HAIES - 4300m - 95000.00€


DERNIÈRE MINUTE
 
05
zone Gratuite

TIERCE SPÉCIAL
 05 - 10 - 11 - 07
Reservée aux abonnés

Arrivée:7-10-11-14-13

---------------------------------------------------------------------0-------------------------

12/11/2022 PRIX ATLANTIC
15:15 - Réunion 1 Course 3 - PARIS-VINCENNES
TROT ATTELE - 2700m - 57000.00€ - Corde à gauche



DERNIÈRE MINUTE
 
02
zone Gratuite

TIERCE SPÉCIAL
 11 - 01 - 04 - 02
Reservée aux abonnés

Arrivée:11-1-2-8-4

---------------------------------------------------------------------0-------------------------

11/11/2022 PRIX DE LA VILLE DE TOULOUSE
15:15 - Réunion 1 Course 3 - TOULOUSE
PLAT - 2400m - 50000.00€ - Corde à droite



DERNIÈRE MINUTE
 
05
zone Gratuite

TIERCE SPÉCIAL
 05 - 13 - 07 - 12
Reservée aux abonnés

Arrivée:13-7-12-9-2

---------------------------------------------------------------------0-------------------------

10/11/2022 PRIX MARCEL LAURENT
13:50 - Réunion 1 Course 1 - PARIS-VINCENNES
TROT ATTELE - 2100m - 120000.00€



DERNIÈRE MINUTE
 
05
zone Gratuite

TIERCE SPÉCIAL
 01 - 05 - 04 - 06
Reservée aux abonnés

Arrivée:1-4-6-13-5

---------------------------------------------------------------------0-------------------------

09/11/2022 GRAND NATIONAL DU TROT PARISTURF
13:55 - Réunion 1 Course 2 - NANTES
TROT ATTELE - 3000m - 90000.00€ - Corde à gauche



DERNIÈRE MINUTE
 
07
zone Gratuite

TIERCE SPÉCIAL
 14 - 07 - 04 - 03
Reservée aux abonnés

Arrivée:14-7-4-6-3

---------------------------------------------------------------------0-------------------------

08/11/2022 PRIX DE LA SEINE-ET-MARNE
13:50 - Réunion 1 Course 4 - FONTAINEBLEAU
PLAT - 1400m - 50000.00€ - Corde à gauche


DERNIÈRE MINUTE
 
08
zone Gratuite

TIERCE SPÉCIAL
 07 - 08 - 01 - 06
Reservée aux abonnés

Arrivée:7-8-1-3-6

---------------------------------------------------------------------0-------------------------

07/11/2022 PRIX DE MAURE DE BRETAGNE
13:50 - Réunion 1 Course 1 - PARIS-VINCENNES
TROT ATTELE - 2700m - 51000.00€ - Corde à gauche


DERNIÈRE MINUTE
 
12
zone Gratuite

TIERCE SPÉCIAL
 12 - 15 - 05 - 09
Reservée aux abonnés

Arrivée:12-5-9-7-4

---------------------------------------------------------------------0-------------------------

06/11/2022 PRIX DU PAYS DE BRAY
15:15 - Réunion 1 Course 4 - DEAUVILLE
PLAT - 1900m - 70000.00€ - Corde à droite


DERNIÈRE MINUTE
 
07
zone Gratuite

TIERCE SPÉCIAL
 07 - 05 - 02 - 03
Reservée aux abonnés

Arrivée: 5-2-3-7-4

---------------------------------------------------------------------0-------------------------

05/11/2022 PRIX DES POIRIERS
15:15 - Réunion 1 Course 3 - DEAUVILLE
PLAT - 2500m - 50000.00€ - Corde à droite


DERNIÈRE MINUTE
 
01
zone Gratuite

TIERCE SPÉCIAL
 01 - 07 - 13 - 02
Reservée aux abonnés

Arrivée:7-13-2-8-1

---------------------------------------------------------------------0-------------------------



04/11/2022 PRIX BARBARA
20:15 - Réunion 1 Course 4 - PARIS-VINCENNES
TROT ATTELE - 2100m - 53000.00€



DERNIÈRE MINUTE
 
07
zone Gratuite

TIERCE SPÉCIAL
 07 - 02 - 06 - 05
Reservée aux abonnés

Arrivée:2-6-5-3-4

---------------------------------------------------------------------0-------------------------

03/11/2022 PRIX DE SOULAC
13:50 - Réunion 1 Course 1 - PARIS-VINCENNES
TROT ATTELE - 2700m - 65000.00€ - Corde à gauche



DERNIÈRE MINUTE
 
04
zone Gratuite

TIERCE SPÉCIAL
 04 - 08 - 02 - 05
Reservée aux abonnés

Arrivée:4-8-5-3-2

---------------------------------------------------------------------0-------------------------

02/11/2022 PRIX DE LA VIERGE DE LORETTE
13:50 - Réunion 1 Course 3 - CHANTILLY
PLAT - 1300m - 50000.00€ - Corde à droite


DERNIÈRE MINUTE
 
12
zone Gratuite

TIERCE SPÉCIAL
 12 - 02 - 09 - 07
Reservée aux abonnés

Arrivée:2-9-7-1-15

---------------------------------------------------------------------0-------------------------

1er/11/2022 GRAND PRIX DE LA VILLE DE LAVAL
15:15 - Réunion 1 Course 3 - LAVAL
TROT ATTELE - 2850m - 70000.00€ - Corde à gauche


DERNIÈRE MINUTE
 
06
zone Gratuite

TIERCE SPÉCIAL
 07 - 01 - 06 - 11
Reservée aux abonnés

Arrivée: 7-1-6-11-8

---------------------------------------------------------------------0-------------------------

       31/10/2022 PRIX DE L'ELEVAGE
13:50 - Réunion 1 Course 3 - SAINT CLOUD
     PLAT - 2500m - 50000.00€ - Corde à gauche


DERNIÈRE MINUTE
 
08
zone Gratuite

TIERCE SPÉCIAL
 08 - 02 - 05 - 01
Reservée aux abonnés

Arrivée:5-2-1-9-12

---------------------------------------------------------------------0-------------------------

30/10/2022 PRIX DU CHENE DU COUP DE FOUDRE
15:15 - Réunion 1 Course 6 - CHANTILLY
PLAT - 1600m - 50000.00€ - Corde à droite


DERNIÈRE MINUTE
 
03
zone Gratuite

TIERCE SPÉCIAL
 03 - 07 - 09 - 05
Reservée aux abonnés

Arrivée:7-9-5-3-1

---------------------------------------------------------------------0-------------------------


29/10/2022 PRIX CEREALISTE
15:15 - Réunion 1 Course 3 - COMPIEGNE
HAIES - 3600m - 95000.00€



DERNIÈRE MINUTE
 
01
zone Gratuite

TIERCE SPÉCIAL
 01 - 12 - 10 - 13
Reservée aux abonnés

Arrivée:12-13-1-2-8

---------------------------------------------------------------------0-------------------------

28/10/2022 PRIX ORIONIS
20:15 - Réunion 1 Course 4 - PARIS-VINCENNES
TROT ATTELE - 2850m - 57000.00€ - Corde à gauche


DERNIÈRE MINUTE
 
08
zone Gratuite

TIERCE SPÉCIAL
 08 - 13 - 05 - 10
Reservée aux abonnés

Arrivée:13-10-8-5-7

---------------------------------------------------------------------0-------------------------


27/10/2022 PRIX RIEUSSEC
13:50 - Réunion 1 Course 1 - LONGCHAMP
PLAT - 2800m - 50000.00€ - Corde à droite



DERNIÈRE MINUTE
 
02
zone Gratuite

TIERCE SPÉCIAL
 02 - 10 - 05 - 06
Reservée aux abonnés

Arrivée:10-5-6-14-15

---------------------------------------------------------------------0-------------------------

26/10/2022 PRIX DE LA PORTE BRANCION
13:50 - Réunion 1 Course 1 - ENGHIEN
TROT ATTELE - 2150m - 51000.00€


DERNIÈRE MINUTE
 
03
zone Gratuite

TIERCE SPÉCIAL
 03 - 05 - 11 - 14
Reservée aux abonnés

Arrivée:5-11-14-3-6

---------------------------------------------------------------------0-------------------------

25/10/2022 PRIX SANTO PIETRO
13:50 - Réunion 1 Course 1 - AUTEUIL
HAIES - 3600m - 95000.00€


DERNIÈRE MINUTE
 
09
zone Gratuite

TIERCE SPÉCIAL
 09 - 07 - 03 - 15
Reservée aux abonnés

Arrivée:7-15-9-6-3

---------------------------------------------------------------------0-------------------------


24/10/2022 HANDICAP DE MARSEILLE
13:50 - Réunion 1 Course 4 - MARSEILLE BORELY
PLAT - 2000m - 50000.00€ - Corde à gauche


DERNIÈRE MINUTE
 
03
zone Gratuite

TIERCE SPÉCIAL
 07 - 03 - 06 - 09
Reservée aux abonnés

Arrivée:7-3-9-6-2

---------------------------------------------------------------------0-------------------------

23/10/2022 PRIX ''LE PARISIEN'' (PRIX DE BOTZARIS)
15:15 - Réunion 1 Course 4 - LONGCHAMP
PLAT - 2200m - 50000.00€ - Corde à droite


DERNIÈRE MINUTE
 
12
zone Gratuite

TIERCE SPÉCIAL
 12 - 01 - 07 - 15
Reservée aux abonnés

Arrivée:1-7-15-12-10

---------------------------------------------------------------------0-------------------------

22/10/2022 PRIX DE VERSAILLES
15:15 - Réunion 1 Course 4 - SAINT CLOUD
PLAT - 1600m - 55000.00€ - Corde à gauche


DERNIÈRE MINUTE
 
05
zone Gratuite

TIERCE SPÉCIAL
 05 - 13 - 03 - 06
Reservée aux abonnés

Arrivée:6-13-3-15-11

---------------------------------------------------------------------0-------------------------

21/10/2022 PRIX THEMIS
20:15 - Réunion 1 Course 3 - PARIS-VINCENNES
TROT ATTELE - 2850m - 65000.00€ - Corde à gauche


DERNIÈRE MINUTE
 
03
zone Gratuite

TIERCE SPÉCIAL
 03 - 07 - 01 - 04
Reservée aux abonnés

Arrivée:3-7-1-2-4

---------------------------------------------------------------------0-------------------------

20/10/2022 PRIX DU PORT DU HAVRE
13:50 - Réunion 1 Course 4 - DEAUVILLE
PLAT - 1200m - 50000.00€


DERNIÈRE MINUTE
 
04
zone Gratuite

TIERCE SPÉCIAL
 04 - 11 - 07 - 14
Reservée aux abonnés

Arrivée:14-11-7-13-10

---------------------------------------------------------------------0-------------------------

19/10/2022 GRAND NATIONAL DU TROT
13:50 - Réunion 1 Course 1 - FEURS
TROT ATTELE - 2850m - 90000.00€ - Corde à gauche


DERNIÈRE MINUTE
 
12
zone Gratuite

TIERCE SPÉCIAL
 12 - 07 - 11 - 13
Reservée aux abonnés

Arrivée:13-11-7-3-2

---------------------------------------------------------------------0-------------------------

18/10/2022 PRIX ALGORAH
13:50 - Réunion 1 Course 1 - PARIS-VINCENNES
TROT ATTELE - 2100m - 57000.00€


DERNIÈRE MINUTE
 
13
zone Gratuite

TIERCE SPÉCIAL
 13 - 06 - 04 - 02
Reservée aux abonnés

Arrivée:6-4-2-11-1

---------------------------------------------------------------------0-------------------------

17/10/2022 PRIX "AUX COURSES LES JEUNES" (PRIX DES EQUIDAYS)
13:50 - Réunion 1 Course 1 - CLAIREFONTAINE
PLAT - 2400m - 55000.00€ - Corde à droite


DERNIÈRE MINUTE
 
08
zone Gratuite

TIERCE SPÉCIAL
 08 - 01 - 04 - 05
Reservée aux abonnés

Arrivée:1-8-5-13-4

---------------------------------------------------------------------0-------------------------

16/10/2022 PRIX DES ARENES DE LUTECE
15:15 - Réunion 1 Course 4 - LONGCHAMP
PLAT - 1600m - 50000.00€ - Corde à droite


DERNIÈRE MINUTE
 
06
zone Gratuite

TIERCE SPÉCIAL
 06 - 02 - 07 - 14
Reservée aux abonnés

Arrivée:2-14-7-8-3

---------------------------------------------------------------------0-------------------------

15/10/2022 PRIX DU PRINCE D'ECOUEN
15:15 - Réunion 1 Course 4 - AUTEUIL
HAIES - 3900m - 95000.00€


DERNIÈRE MINUTE
 
01
zone Gratuite

TIERCE SPÉCIAL
 01 - 12 - 11 - 14
Reservée aux abonnés

Arrivée:12-11-14-16-3

---------------------------------------------------------------------0-------------------------

14/10/2022 CHAMPIONNAT EUROPEEN DES 5 ANS
20:15 - Réunion 1 Course 4 - PARIS-VINCENNES
TROT ATTELE - 2100m - 100000.00€


DERNIÈRE MINUTE
 
09
zone Gratuite

TIERCE SPÉCIAL
 09 - 07 - 13 - 17
Reservée aux abonnés

Arrivée:13-9-17-14-5

---------------------------------------------------------------------0-------------------------

13/10/2022 PRIX CARRUS
13:50 - Réunion 1 Course 1 - LONGCHAMP
PLAT - 1950m - 50000.00€ - Corde à droite


DERNIÈRE MINUTE
 
07
zone Gratuite

TIERCE SPÉCIAL
 07 - 16 - 02 - 03
Reservée aux abonnés

Arrivée:2-16-3-10-14

---------------------------------------------------------------------0-------------------------

12/10/2022 PRIX DES GOBELINS
13:50 - Réunion 1 Course 1 - ENGHIEN
TROT ATTELE - 2875m - 57000.00€ - Corde à gauche


DERNIÈRE MINUTE
 
16
zone Gratuite

TIERCE SPÉCIAL
 16 - 14 - 06 - 01
Reservée aux abonnés

Arrivée:14-6-1-8-5

---------------------------------------------------------------------0-------------------------

11/10/2022 PRIX DU VAL D'OR
13:50 - Réunion 1 Course 1 - SAINT CLOUD
PLAT - 2400m - 50000.00€ - Corde à gauche


DERNIÈRE MINUTE
 
04
zone Gratuite

TIERCE SPÉCIAL
 04 - 06 - 15 - 09
Reservée aux abonnés

Arrivée: 6-9-15-8-16

---------------------------------------------------------------------0-------------------------

10/10/2022 PRIX DU PONT DES ARTS
13:50 - Réunion 1 Course 1 - ENGHIEN
TROT ATTELE - 2875m - 57000.00€ - Corde à gauche


DERNIÈRE MINUTE
 
06
zone Gratuite

TIERCE SPÉCIAL
 09 - 06 - 05 - 13
Reservée aux abonnés

Arrivée:9-6-13-5-10

---------------------------------------------------------------------0-------------------------


09/10/2022 PRIX ANDRE ADELE
15:15 - Réunion 1 Course 3 - AUTEUIL
STEEPLE CHASE - 3700m - 95000.00€


DERNIÈRE MINUTE
 
08
zone Gratuite

TIERCE SPÉCIAL
 14 - 03 - 18 - 08
Reservée aux abonnés

Arrivée:14-18-8-4-10

---------------------------------------------------------------------0-------------------------

08/10/2022 PRIX D'AUTOMNE
15:15 - Réunion 1 Course 3 - CAEN
TROT ATTELE - 2450m - 38000.00€ - Corde à droite


DERNIÈRE MINUTE
 
02
zone Gratuite

TIERCE SPÉCIAL
 02 - 03 - 06 - 01
Reservée aux abonnés

Arrivée:2-3-6-7-1

---------------------------------------------------------------------0-------------------------

07/10/2022 PRIX CHARLEY MILLS
20:15 - Réunion 1 Course 3 - PARIS-VINCENNES
TROT ATTELE - 2700m - 75000.00€ - Corde à gauche


DERNIÈRE MINUTE
 
10
zone Gratuite

TIERCE SPÉCIAL
 10 - 01 - 12 - 14
Reservée aux abonnés

Arrivée:1-12-14-5-11

---------------------------------------------------------------------0-------------------------

06/10/2022 PRIX DE SAINT-PAIR-DU-MONT
13:50 - Réunion 1 Course 1 - SAINT CLOUD
PLAT - 2000m - 55000.00€ - Corde à gauche


DERNIÈRE MINUTE
 
06
zone Gratuite

TIERCE SPÉCIAL
 06 - 05 - 08 - 16
Reservée aux abonnés

Arrivée:18-8-5-4-13

---------------------------------------------------------------------0-------------------------

05/10/2022 GRAND PRIX ANJOU-MAINE
13:50 - Réunion 1 Course 1 - LAVAL
TROT ATTELE - 2850m - 100000.00€ - Corde à gauche


DERNIÈRE MINUTE
 
14
zone Gratuite

TIERCE SPÉCIAL
 14 - 01 - 06 - 04
Reservée aux abonnés

Arrivée:14-1-4-5-6

---------------------------------------------------------------------0-------------------------

04/10/2022 PRIX GUILLAUME DE PRACOMTAL
13:50 - Réunion 1 Course 1 - AUTEUIL
HAIES - 3600m - 95000.00


DERNIÈRE MINUTE
 
07
zone Gratuite

TIERCE SPÉCIAL
 07 - 02 - 13 - 04
Reservée aux abonnés

Arrivée:13-2-4-15-3

---------------------------------------------------------------------0-------------------------

03/10/2022 PRIX DE SAINT-CHAMOND
13:50 - Réunion 1 Course 1 - ENGHIEN
TROT ATTELE - 2150m - 57000.00€


DERNIÈRE MINUTE
 
14
zone Gratuite

TIERCE SPÉCIAL
 14 - 01 - 02 - 09
Reservée aux abonnés

Arrivée:1-2-9-5-12

---------------------------------------------------------------------0-------------------------

02/10/2022 QATAR PRIX DE L'ARC DE TRIOMPHE
16:05 - Réunion 1 Course 4 - LONGCHAMP
PLAT - 2400m - 5000000.00€ - Corde à droite


DERNIÈRE MINUTE
 
20
zone Gratuite

TIERCE SPÉCIAL
 20 - 14 - 02 - 15
Reservée aux abonnés

Arrivée:14-15-2-16-13

---------------------------------------------------------------------0-------------------------

1er/10/2022 QATAR PRIX DE LA PLACE DES VOSGES
15:15 - Réunion 1 Course 4 - LONGCHAMP
PLAT - 2500m - 70000.00€ - Corde à droite


DERNIÈRE MINUTE
 
04
zone Gratuite

TIERCE SPÉCIAL
 04 - 15 - 01 - 17
Reservée aux abonnés

Arrivée:15-4-17-11-18

---------------------------------------------------------------------0-------------------------

30/09/2022 PRIX ELLA
20:15 - Réunion 1 Course 3 - PARIS-VINCENNES
TROT ATTELE - 2850m - 44000.00€ - Corde à gauche


DERNIÈRE MINUTE
 
11
zone Gratuite

TIERCE SPÉCIAL
 11 - 14 - 05 - 12
Reservée aux abonnés

Arrivée:14-11-12-5-15

---------------------------------------------------------------------0-------------------------

29/09/2022 PRIX DE LA GALERIE DES BATAILLES
13:50 - Réunion 1 Course 2 - CHANTILLY
PLAT - 1600m - 50000.00€ - Corde à droite


DERNIÈRE MINUTE
 
15
zone Gratuite

TIERCE SPÉCIAL
 
15 - 07 - 16 - 11
Reservée aux abonnés

Arrivée:11-7-16-12-6

---------------------------------------------------------------------0-------------------------

28/09/2022 GRAND NATIONAL DU TROT
13:50 - Réunion 1 Course 1 - VIRE
TROT ATTELE - 3475m - 90000.00€ - Corde à droite


DERNIÈRE MINUTE
 
11
zone Gratuite

TIERCE SPÉCIAL
 11 - 05 - 03 - 13
Reservée aux abonnés

Arrivée:11-5-3-13-14

---------------------------------------------------------------------0-------------------------

27/09/2022 PRIX DE BEAUNE
13:50 - Réunion 1 Course 1 - COMPIEGNE
HAIES - 3800m - 95000.00€


DERNIÈRE MINUTE
 
03
zone Gratuite

TIERCE SPÉCIAL
 03 - 16 - 02 - 10
Reservée aux abonnés

Arrivée:3-16-10-5-8

---------------------------------------------------------------------0-------------------------

26/09/2022 GRAND PRIX DE TROT DE LYON
13:50 - Réunion 1 Course 4 - LYON PARILLY
TROT ATTELE - 2850m - 33000.00€ - Corde à gauche


DERNIÈRE MINUTE
 
16
zone Gratuite

TIERCE SPÉCIAL
 16 - 10 - 05 - 09
Reservée aux abonnés

Arrivée:10-9-16-11-8

---------------------------------------------------------------------0-------------------------

25/09/2022 GRAND PRIX DU PORTUGAL (PRIX D'ANCENIS)
15:15 - Réunion 1 Course 4 - PARIS-VINCENNES
TROT ATTELE - 2850m - 65000.00€ - Corde à gauche


DERNIÈRE MINUTE
 
13
zone Gratuite

TIERCE SPÉCIAL
 13 - 09 - 06 - 02
Reservée aux abonnés

Arrivée:2-6-9-4-1

---------------------------------------------------------------------0-------------------------

24/09/2022 PRIX VIOLON II
15:15 - Réunion 1 Course 3 - AUTEUIL
STEEPLE CHASE - 4400m - 95000.00€


DERNIÈRE MINUTE
 
04
zone Gratuite

TIERCE SPÉCIAL
 12 - 04 - 16 - 09
Reservée aux abonnés

Arrivée:12-4-16-15-9

---------------------------------------------------------------------0-------------------------

23/09/2022 PRIX CLEOMEDE
20:15 - Réunion 1 Course 3 - PARIS-VINCENNES
TROT ATTELE - 2850m - 49000.00€ - Corde à gauche


DERNIÈRE MINUTE
 
11
zone Gratuite

TIERCE SPÉCIAL
 11 - 14 - 13 - 02
Reservée aux abonnés

Arrivée:11-14-13-2-5

---------------------------------------------------------------------0-------------------------

22/09/2022 - Prix Bernard Le Quellec
13:50 - Réunion 1 Course 1 - Vincennes
TROT ATTELE - 2700m - 65000.00€


DERNIÈRE MINUTE
 
14
zone Gratuite

TIERCE SPÉCIAL
 11 - 14 - 02 - 16
Reservée aux abonnés

Arrivée:11-16-14-1-10

---------------------------------------------------------------------0-------------------------

21/09/2022 PX CREDIT AGRICOLE - COEUR DE THIERACHE
13:50 - Réunion 1 Course 4 - LA CAPELLE
TROT ATTELE - 2700m - 32000.00€


DERNIÈRE MINUTE
 
01
zone Gratuite

TIERCE SPÉCIAL
 01 - 15 - 06 - 05
Reservée aux abonnés

Arrivée:15-6-1-5-11

---------------------------------------------------------------------0-------------------------

20/09/2022 PRIX CALABRAIS
13:50 - Réunion 1 Course 2 - AUTEUIL
HAIES - 3600m - 95000.00€


DERNIÈRE MINUTE
 
03
zone Gratuite

TIERCE SPÉCIAL
 03 - 05 - 10 - 13
Reservée aux abonnés

Arrivée:10-5-13-6-1

---------------------------------------------------------------------0-------------------------

19/09/2022 PRIX JOUVENCE
13:50 - Réunion 1 Course 1 - SAINT CLOUD
PLAT - 3000m - 50000.00€ - Corde à gauche


DERNIÈRE MINUTE
 
02
zone Gratuite

TIERCE SPÉCIAL
 02 - 06 - 16 - 07
Reservée aux abonnés

Arrivée:16-6-7-3-8

---------------------------------------------------------------------0-------------------------

18/09/2022 CRITERIUM DES 5 ANS
15:15 - Réunion 1 Course 4 - PARIS-VINCENNES
TROT ATTELE - 3000m - 300000.00€ - Corde à gauche


DERNIÈRE MINUTE
 
15
zone Gratuite

TIERCE SPÉCIAL
 15 - 13 - 16 - 07
Reservée aux abonnés

Arrivée:13-16-7-11-12

---------------------------------------------------------------------0-------------------------

17/09/2022 PRIX DU CABINET DES LIVRES
15:15 - Réunion 1 Course 3 - CHANTILLY
PLAT - 1200m - 50000.00€


DERNIÈRE MINUTE
 
02
zone Gratuite

TIERCE SPÉCIAL
 02 - 07 - 01 - 09
Reservée aux abonnés

Arrivée:2-7-1-9-8

---------------------------------------------------------------------0-------------------------

16/09/2022 PRIX OPHELIA
20:15 - Réunion 1 Course 3 - PARIS-VINCENNES
TROT ATTELE - 2850m - 57000.00€ - Corde à gauche


DERNIÈRE MINUTE
 
01
zone Gratuite

TIERCE SPÉCIAL
 01 - 15 - 05 - 03
Reservée aux abonnés

Arrivée:15-5-3-1-8

---------------------------------------------------------------------0-------------------------

15/09/2022 PRIX DE LA TABLE
18:20 - Réunion 1 Course 6 - LONGCHAMP
PLAT - 2000m - 50000.00€ - Corde à droit


DERNIÈRE MINUTE
 
09
zone Gratuite

TIERCE SPÉCIAL
 09 - 07 - 10 - 06
Reservée aux abonnés

Arrivée:6-10-7-9-1

---------------------------------------------------------------------0-------------------------

14/09/2022 PRIX DE COMPIEGNE CITE IMPERIALE
13:50 - Réunion 1 Course 1 - COMPIEGNE
PLAT - 1600m - 55000.00€ - Corde à gauche


DERNIÈRE MINUTE
 
06
zone Gratuite

TIERCE SPÉCIAL
 06 - 07 - 09 - 16
Reservée aux abonnés

Arrivée:16-7-9-6-13

---------------------------------------------------------------------0-------------------------

13/09/2022 PRIX ALAIN ET GILLES DE GOULAINE
13:50 - Réunion 1 Course 2 - AUTEUIL
HAIES - 3600m - 95000.00€


DERNIÈRE MINUTE
 
12
zone Gratuite

TIERCE SPÉCIAL
 12 - 07 - 06 - 01
Reservée aux abonnés

Arrivée:7-6-1-13-16

---------------------------------------------------------------------0-------------------------

12/09/2022 GRAND PRIX JEAN DUMOUCH
13:50 - Réunion 1 Course 4 - BEAUMONT DE LOMAGNE
TROT ATTELE - 2550m - 37000.00€ - Corde à droite


DERNIÈRE MINUTE
 
08
zone Gratuite

TIERCE SPÉCIAL
 11 - 04 - 08 - 06
Reservée aux abonnés

Arrivée:11-4-8-6-5

---------------------------------------------------------------------0-------------------------

11/09/2022 QATAR HANDICAP DES ARC TRIALS
15:15 - Réunion 1 Course 4 - LONGCHAMP
PLAT - 1400m - 50000.00€ - Corde à droite


DERNIÈRE MINUTE
 
03
zone Gratuite

TIERCE SPÉCIAL
 03 - 11 - 15 - 01
Reservée aux abonnés

Arrivée:11-15-1-7-3

---------------------------------------------------------------------0-------------------------

10/09/2022 PRIX D'EAUBONNE
15:15 - Réunion 1 Course 3 - PARIS-VINCENNES
TROT ATTELE - 2100m - 49000.00€


DERNIÈRE MINUTE
 
07
zone Gratuite

TIERCE SPÉCIAL
 07 - 13 - 01 - 05
Reservée aux abonnés

Arrivée:7-13-5-2-8

---------------------------------------------------------------------0-------------------------

09/09/2022 PRIX ADELINDA
20:15 - Réunion 1 Course 3 - PARIS-VINCENNES
TROT ATTELE - 2850m - 57000.00€ - Corde à gauche


DERNIÈRE MINUTE
 
01
zone Gratuite

TIERCE SPÉCIAL
 01 - 11 - 08 - 10
Reservée aux abonnés

Arrivée:11-8-10-1-7

---------------------------------------------------------------------0-------------------------

08/09/2022 PRIX DE LONGCHAMP
18:20 - Réunion 1 Course 5 - LONGCHAMP
PLAT - 2200m - 55000.00€ - Corde à droite


DERNIÈRE MINUTE
 
04
zone Gratuite

TIERCE SPÉCIAL
 03 - 06 - 04 - 16
Reservée aux abonnés

Arrivée:3-6-4-16-2

---------------------------------------------------------------------0-------------------------

07/09/2022 GRAND NATIONAL DU TROT PARIS-TURF
13:50 - Réunion 1 Course 1 - MESLAY DU MAINE
TROT ATTELE - 2875m - 90000.00€ - Corde à droite


DERNIÈRE MINUTE
 
02
zone Gratuite

TIERCE SPÉCIAL
 02 - 11 - 06 - 03
Reservée aux abonnés

Arrivée:11-6-3-1-8

---------------------------------------------------------------------0-------------------------

06/09/2022 PRIX JEAN BART
13:50 - Réunion 1 Course 4 - AUTEUIL
HAIES - 3600m - 95000.00€


DERNIÈRE MINUTE
 
10
zone Gratuite

TIERCE SPÉCIAL
 10 - 09 - 05 - 07
Reservée aux abonnés

Arrivée:7-9-5-15-4

---------------------------------------------------------------------0-------------------------


05/09/2022 PRIX V AND B - FINALE DU TROPHEE VERT
13:50 - Réunion 1 Course 4 - CRAON
TROT ATTELE - 2775m - 80000.00€ - Corde à droite


DERNIÈRE MINUTE
 
11
zone Gratuite

TIERCE SPÉCIAL
 02 - 14 - 01 - 11
Reservée aux abonnés

Arrivée: 2-14-11-1-4

---------------------------------------------------------------------0-------------------------

04/09/2022 PRIX DES GRANDES CARRIERES
15:15 - Réunion 1 Course 4 - LONGCHAMP
PLAT - 1850m - 50000.00€ - Corde à droite


DERNIÈRE MINUTE
 
03
zone Gratuite

TIERCE SPÉCIAL
 03 - 08 - 11 - 15
Reservée aux abonnés

Arrivée: 15-8-11-1-5

---------------------------------------------------------------------0-------------------------

03/09/2022 CRITERIUM 5 ANS-Q2 - PRIX JOCKEY
15:15 - Réunion 1 Course 3 - PARIS-VINCENNES
TROT ATTELE - 2700m - 120000.00€ - Corde à gauche


DERNIÈRE MINUTE
 
14
zone Gratuite

TIERCE SPÉCIAL
 13 - 07 - 04 - 14
Reservée aux abonnés

Arrivée: 13-7-14-10-4

---------------------------------------------------------------------0-------------------------

02/09/2022 PRIX DIOTIMA
20:15 - Réunion 1 Course 3 - PARIS-VINCENNES
TROT ATTELE - 2100m - 49000.00€


DERNIÈRE MINUTE
 
09
zone Gratuite

TIERCE SPÉCIAL
 09 - 11 - 02 - 05
Reservée aux abonnés

Arrivée: 11-2-5-7-1

---------------------------------------------------------------------0-------------------------

1er/09/2022 PRIX DE LA REINE MARGUERITE
18:20 - Réunion 1 Course 5 - LONGCHAMP
PLAT - 2250m - 50000.00€ - Corde à droite


DERNIÈRE MINUTE
 
05
zone Gratuite

TIERCE SPÉCIAL
 05 - 07 - 13 - 12
Reservée aux abonnés

Arrivée: 7-13-12-4-8

---------------------------------------------------------------------0-------------------------


31/08/2022 PRIX DES HAUTS-DE-FRANCE
13:50 - Réunion 1 Course 1 - COMPIEGNE
PLAT - 1600m - 50000.00€ - Corde à gauche


DERNIÈRE MINUTE
 
07
zone Gratuite

TIERCE SPÉCIAL
 07 - 03 - 02 - 10
Reservée aux abonnés

Arrivée: 3-2-10-16-4

---------------------------------------------------------------------0-------------------------

30/08/2022 PRIX REGION NORMANDIE
13:50 - Réunion 1 Course 1 - DIEPPE
PLAT - 1100m - 50000.00€


DERNIÈRE MINUTE
 
06
zone Gratuite

TIERCE SPÉCIAL
 06 - 04 - 05 - 02
Reservée aux abonnés

Arrivée: 4-5-2-1-15

---------------------------------------------------------------------0-------------------------

29/08/2022 PRIX DE BARBIZON
13:50 - Réunion 1 Course 1 - PARIS-VINCENNES
TROT ATTELE - 2100m - 44000.00€


DERNIÈRE MINUTE
 
03
zone Gratuite

TIERCE SPÉCIAL
 03 - 11 - 06 - 02
Reservée aux abonnés

Arrivée: 11-2-6-7-8

---------------------------------------------------------------------0-------------------------

28/08/2022 BARRIERE GRAND HANDICAP
15:15 - Réunion 1 Course 3 - DEAUVILLE
PLAT - 1900m - 70000.00€ - Corde à droite


DERNIÈRE MINUTE
 
02
zone Gratuite

TIERCE SPÉCIAL
 02 - 10 - 06 - 09
Reservée aux abonnés

Arrivée: 9-10-6-16-4

---------------------------------------------------------------------0-------------------------

27/08/2022 PRIX DE LA RECONVERSION DES CHEVAUX DE COURSES (PRIX DES CHENETTES)
15:15 - Réunion 1 Course 3 - DEAUVILLE
PLAT - 1900m - 55000.00€ - Corde à droite


DERNIÈRE MINUTE
 
01
zone Gratuite

TIERCE SPÉCIAL
 08 - 01 - 14 - 16
Reservée aux abonnés

Arrivée: 8-1-16-5-3

---------------------------------------------------------------------0-------------------------


26/08/2022 PRIX D'ARGENTAN
20:15 - Réunion 1 Course 3 - CABOURG
TROT ATTELE - 2725m - 36000.00€


DERNIÈRE MINUTE
 
13
zone Gratuite

TIERCE SPÉCIAL
 13 - 03 - 12 - 04
Reservée aux abonnés

Arrivée: 3-12-13-4-7

---------------------------------------------------------------------0-------------------------

25/08/2022 HANDICAP DE LA MANCHE - PRIX APOLLINE MATIN 6H/9H
20:15 - Réunion 1 Course 7 - DEAUVILLE
PLAT - 3200m - 50000.00€ - Corde à droite


DERNIÈRE MINUTE
 
08
zone Gratuite

TIERCE SPÉCIAL
 08 - 01 - 07 - 14
Reservée aux abonnés

Arrivée: 7-1-14-12-11

---------------------------------------------------------------------0-------------------------

24/08/2022 PRIX DE BEAUNE
20:15 - Réunion 1 Course 7 - PARIS-VINCENNES
TROT ATTELE - 2700m - 65000.00€ - Corde à gauche


DERNIÈRE MINUTE
 
14
zone Gratuite

TIERCE SPÉCIAL
 15 - 12 - 14 - 03
Reservée aux abonnés

Arrivée: 15-12-14-3-1

---------------------------------------------------------------------0-------------------------

23/08/2022 PRIX DU JOURNAL "LE PAYS D'AUGE" (PRIX DU HAVRE)
18:00 - Réunion 1 Course 8 - DEAUVILLE
PLAT - 1500m - 50000.00€ - Corde à droite


DERNIÈRE MINUTE
 
09
zone Gratuite

TIERCE SPÉCIAL
 09 - 14 - 10 - 16
Reservée aux abonnés

Arrivée: 14-10-16-8-4

---------------------------------------------------------------------0-------------------------

22/08/2022 GRAND STEEPLE-CHASE - VILLE DE DEAUVILLE
18:00 - Réunion 1 Course 8 - CLAIREFONTAINE
STEEPLE CHASE - 4500m - 95000.00€


DERNIÈRE MINUTE
 
12
zone Gratuite

TIERCE SPÉCIAL
 12 - 01 - 06 - 02
Reservée aux abonnés

Arrivée: 1-2-6-12-10

---------------------------------------------------------------------0-------------------------

21/08/2022 DARLEY PRIX DES GRENIERS A SEL
15:15 - Réunion 1 Course 3 - DEAUVILLE
PLAT - 2000m - 50000.00€ - Corde à droite


DERNIÈRE MINUTE
 
09
zone Gratuite

TIERCE SPÉCIAL
 09 - 04 - 13 - 02
Reservée aux abonnés

Arrivée: 4-13-2-1-3

---------------------------------------------------------------------0-------------------------

20/08/2022 PRIX DE BALLEROY
15:15 - Réunion 1 Course 3 - DEAUVILLE
PLAT - 1400m - 55000.00€


DERNIÈRE MINUTE
 
03
zone Gratuite

TIERCE SPÉCIAL
 03 - 01 - 04 - 12
Reservée aux abonnés

Arrivée: 1-4-12-8-13

---------------------------------------------------------------------0-------------------------

19/08/2022 PRIX DU CASINO PARTOUCHE DE PORNICHET
20:15 - Réunion 1 Course 5 - PORNICHET
TROT ATTELE - 2725m - 32000.00€ - Corde à gauche



DERNIÈRE MINUTE
 
13
zone Gratuite

TIERCE SPÉCIAL
 13 - 07 - 01 - 12
Reservée aux abonnés

Arrivée: 7-1-12-6-4

---------------------------------------------------------------------0-------------------------

18/08/2022 PRIX DU VIEUX BASSIN
20:15 - Réunion 1 Course 8 - DEAUVILLE
PLAT - 2500m - 55000.00€ - Corde à droite



DERNIÈRE MINUTE
 
08
zone Gratuite

TIERCE SPÉCIAL
 08 - 03 - 13 - 15
Reservée aux abonnés

Arrivée: 3-15-13-8-11

---------------------------------------------------------------------0-------------------------

17/08/2022 PRIX DU PONT DE L'ALMA
20:15 - Réunion 1 Course 8 - ENGHIEN
TROT ATTELE - 2150m - 57000.00€



DERNIÈRE MINUTE
 
01
zone Gratuite

TIERCE SPÉCIAL
 01 - 09 - 05 - 02
Reservée aux abonnés

Arrivée: 9-5-2-4-6

---------------------------------------------------------------------0-------------------------

16/08/2022 PRIX FRANCOIS ANDRE -TROPHEES DU PERSONNEL DES COURSES ET DE L'ELEVAGE
18:00 - Réunion 1 Course 8 - DEAUVILLE
PLAT - 1400m - 50000.00€


DERNIÈRE MINUTE
 
04
zone Gratuite

TIERCE SPÉCIAL
 04 - 12 - 09 - 07
Reservée aux abonnés

Arrivée: 7-12-9-5-15

---------------------------------------------------------------------0-------------------------

15/08/2022 PRIX HONG KONG JOCKEY CLUB - GRAND HANDICAP DES SPRINTERS
15:15 - Réunion 1 Course 3 - DEAUVILLE
PLAT - 1200m - 70000.00€


DERNIÈRE MINUTE
 
01
zone Gratuite

TIERCE SPÉCIAL
 06 - 07 - 04 - 01
Reservée aux abonnés

Arrivée: 6-7-1-9-12

---------------------------------------------------------------------0-------------------------


14/08/2022 PRIX DE BARNEVILLE
15:15 - Réunion 1 Course 3 - DEAUVILLE
PLAT - 2500m - 50000.00€ - Corde à droite


DERNIÈRE MINUTE
 
16
zone Gratuite

TIERCE SPÉCIAL
 16 - 04 - 07 - 05
Reservée aux abonnés

Arrivée: 16-4-5-2-15

---------------------------------------------------------------------0-------------------------


13/08/2022 PRIX FOR MY BIO TATTOO (PRIX ROBERTET)
15:15 - Réunion 1 Course 3 - CLAIREFONTAINE
PLAT - 1800m



DERNIÈRE MINUTE
 
08
zone Gratuite

TIERCE SPÉCIAL
 08 - 03 - 07 - 11
Reservée aux abonnés

Arrivée: 8-3-7-11-2

---------------------------------------------------------------------0-------------------------

12/08/2022 PRIX BRUNO COQUATRIX
20:15 - Réunion 1 Course 3 - CABOURG
TROT ATTELE - 2750m - 36000.00€ - Corde à droite



DERNIÈRE MINUTE
 
03
zone Gratuite

TIERCE SPÉCIAL
 03 - 09 - 08 - 06
Reservée aux abonnés

Arrivée: 3-9-6-8-1

---------------------------------------------------------------------0-------------------------

11/08/2022 PRIX DE LA CONCORDE
20:15 - Réunion 1 Course 7 - ENGHIEN
TROT ATTELE - 2875m - 65000.00€ - Corde à gauche



DERNIÈRE MINUTE
 
06
zone Gratuite

TIERCE SPÉCIAL
 06 - 01 - 09 - 03
Reservée aux abonnés

Arrivée: 6-1-3-7-9

---------------------------------------------------------------------0-------------------------

10/08/2022 GRAND PRIX HENRI DESMONTILS (GRAND NATIONAL DU TROT PARIS-TURF)
20:15 - Réunion 1 Course 8 - PORNICHET
TROT ATTELE - 2725m - 90000.00€ - Corde à gauche



DERNIÈRE MINUTE
 
12
zone Gratuite

TIERCE SPÉCIAL
 02 - 12 - 14 - 01
Reservée aux abonnés

Arrivée: 2-12-14-1-5

---------------------------------------------------------------------0-------------------------

09/08/2022 PRIX DE BAYEUX
18:00 - Réunion 1 Course 8 - DEAUVILLE
PLAT - 1600m - 50000.00€



DERNIÈRE MINUTE
 
02
zone Gratuite

TIERCE SPÉCIAL
 02 - 14 - 01 - 07
Reservée aux abonnés

Arrivée: 2-14-7-12-8

---------------------------------------------------------------------0-------------------------


08/08/2022 PRIX JOURNAL LE VEINARD (PRIX DE LA VILLE DE TOURGEVILLE)
18:00 - Réunion 1 Course 8 - CLAIREFONTAINE
HAIES - 3600m - 95000.00€



DERNIÈRE MINUTE
 
14
zone Gratuite

TIERCE SPÉCIAL
 14 - 01 - 12 - 03
Reservée aux abonnés

Arrivée: 1-12-3-10-4

---------------------------------------------------------------------0-------------------------

07/08/2022 GRAND HANDICAP DE DEAUVILLE
15:15 - Réunion 1 Course 3 - DEAUVILLE
PLAT - 1600m - 100000.00€


DERNIÈRE MINUTE
 
09
zone Gratuite

TIERCE SPÉCIAL
 09 - 02 - 07 - 14
Reservée aux abonnés

Arrivée: 2-7-14-15-5

---------------------------------------------------------------------0-------------------------

06/08/2022 PRIX DES COLLECTIVITES LOCALES
15:15 - Réunion 1 Course 3 - DEAUVILLE
PLAT - 1900m - 50000.00€ - Corde à droite


DERNIÈRE MINUTE
 
14
zone Gratuite

TIERCE SPÉCIAL
 14 - 01 - 13 - 12
Reservée aux abonnés

Arrivée: 13-12-1-10-15

---------------------------------------------------------------------0-------------------------

05/08/2022 PRIX DES LYCOPODES
20:15 - Réunion 1 Course 3 - CABOURG
TROT ATTELE - 2750m - 36000.00€ - Corde à droite



DERNIÈRE MINUTE
 
06
zone Gratuite

TIERCE SPÉCIAL
 06 - 04 - 10 - 02
Reservée aux abonnés

Arrivée: 4-10-2-16-9

---------------------------------------------------------------------0-------------------------

04/08/2022 PRIX DE LA FEDERATION DES ELEVEURS DU GALOP (PRIX DU CHAMP DURAND)
20:15 - Réunion 1 Course 7 - DEAUVILLE
PLAT - 1200m - 55000.00€


DERNIÈRE MINUTE
 
16
zone Gratuite

TIERCE SPÉCIAL
 16 - 07 - 01 - 02
Reservée aux abonnés

Arrivée: 16-7-1-9-2

---------------------------------------------------------------------0-------------------------

03/08/2022 PRIX DE PIGALLE
20:15 - Réunion 1 Course 8 - ENGHIEN
TROT ATTELE - 2875m - 57000.00€ - Corde à gauche


DERNIÈRE MINUTE
 
10
zone Gratuite

TIERCE SPÉCIAL
 10 - 07 - 14 - 11
Reservée aux abonnés

Arrivée: 7-14-11-13-12

---------------------------------------------------------------------0-------------------------

02/08/2022 PRIX DE LA VILLA LUCIE
18:00 - Réunion 1 Course 9 - DEAUVILLE
PLAT - 1300m - 50000.00€ - Corde à droite


DERNIÈRE MINUTE
 
05
zone Gratuite

TIERCE SPÉCIAL
 05 - 08 - 10 - 02
Reservée aux abonnés

Arrivée: 8-10-2-16-9

---------------------------------------------------------------------0-------------------------

1er/08/2022 PRIX DJSL BOIS (PRIX DE LA ROUTE DES VACHES)
18:00 - Réunion 1 Course 8 - DIEPPE
PLAT - 1800m - 50000.00€ - Corde à droite


DERNIÈRE MINUTE
 
05
zone Gratuite

TIERCE SPÉCIAL
 05 - 07 - 06 - 01
Reservée aux abonnés

Arrivée: 7-6-1-11-5

---------------------------------------------------------------------0-------------------------

Quinté du 31 juillet 2022 : Hippodrome de Clairefontaine - Prix de la Ferme Saint-Siméon-Plat: 2400 m- R1-C3


DERNIÈRE MINUTE
 
09
zone Gratuite

TIERCE SPÉCIAL
 09 - 07 - 05 - 13
Reservée aux abonnés

Arrivée: 9-7-13-11-5

---------------------------------------------------------------------0-------------------------

30/07/2022 PRIX DOMINIQUE SAVARY
15:15 - Réunion 1 Course 3 - ENGHIEN
TROT ATTELE - 2150m - 57000.00€


DERNIÈRE MINUTE
 
05
zone Gratuite

TIERCE SPÉCIAL
 05 - 14 - 07 - 01
Reservée aux abonnés

Arrivée: 5-14-1-10-7

---------------------------------------------------------------------0-------------------------

29/07/2022 PRIX HENRI BALLIERE
20:15 - Réunion 1 Course 4 - CABOURG
TROT ATTELE - 2750m - 32000.00€ - Corde à droite


DERNIÈRE MINUTE
 
03
zone Gratuite

TIERCE SPÉCIAL
 03 - 02 - 11 - 05
Reservée aux abonnés

Arrivée: 2-11-5-3-9

---------------------------------------------------------------------0-------------------------